Log in

One click and you are in

Login with Facebook Login with Google

Why sign up and log in

Guitar Tabs Explorer
Duran Duran bass tabs for Violence of summer

Bass tabs

Song Title: Violence Of Summer (Love's Taking Over)
Album: Liberty (1990)
Song Duration: 04:19 min

  Verse 1 (00:16)
  1 & 2 & 3 & 4 & 1 & 2 & 3 & 4 &
G: ----------------|----------------|
D: ----------------|------------5---|
A: 5---5-0-3-5---0-|3---3-0---------|
E: ----------------|--------3-3-----|


  1 & 2 & 3 & 4 & 1 & 2 & 3 & 4 &
G: ----------------|----------------|
D: ----------------|----------------|
A: 5---5-0-3-5---0-|3---3-0---------|
E: ----------------|--------3-3-1---|

  1 & 2 & 3 & 4 & 1 & 2 & 3 & 4 &
G: ----------------|----------------|
D: ----------------|------------5---|
A: 5---5-00-305---0|3---3-0---------|
E: ----------------|--------3-3-----|


  1 & 2 & 3 & 4 & 1 & 2 & 3 & 4 &
G: ----------------|----------------|
D: ----------------|----------------|
A: 5---5-0-3-5---0-|3---3---0230----|
E: ----------------|------------3-1-|


1 & 2 & 3 & 4 & 1 & 2 & 3 & 4 &
G: ----------------|----------------|
D: ----------------|------------5---|
A: 5---5-0-3-5---0-|3---3-0---------|
E: ----------------|--------3-3-----|

  1 & 2 & 3 & 4 & 1 & 2 & 3 & 4 &
G: ----------------|----------------|
D: ----------------|----------------|
A: 5---5-0-3-5---0-|3---3-0---------|
E: ----------------|--------3-3-1---|

  1 & 2 & 3 & 4 & 1 & 2 & 3 & 4 &
G: ----------------|----------------|
D: ----------------|------------5---|
A: 5---5-00-305---0|3---3-0---------|
E: ----------------|--------3-3-----|


  1 & 2 & 3 & 4 & 1 & 2 & 3 & 4 &
G: ----------------|----------------|
D: ----------------|----------------|
A: 5---5-0-3-5---0-|3---3---0230----|
E: ----------------|------------3-1-|

	(00:45)

  1 & 2 & 3 & 4 & 1 & 2 & 3 & 4 &
G: ----------------|----------------|
D: ----------------|-------------5--|
A: 5----00-3-5----0|3---3-0---------|
E: ----------------|--------3-3-----|


  1 & 2 & 3 & 4 & 1 & 2 & 3 & 4 &
G: ----------------|----------------|
D: ----------------|----------------|
A: 5----00-3-5----0|3---3-0---------|
E: ----------------|--------3-3--1--|


  1 & 2 & 3 & 4 & 1 & 2 & 3 & 4 &
G: ----------------|----------------|
D: ----------------|-------------5--|
A: 5----00-3-5----0|3---3-0---------|
E: ----------------|--------3-3-----|


  1 & 2 & 3 & 4 & 1 & 2 & 3 & 4 &
G: ----------------|----------------|
D: ----------------|----------------|
A: 5----00-3-5----0|3---3-0---------|
E: ----------------|--------3-3--1--|


   (01:00)


  1 & 2 & 3 & 4 & 1 & 2 & 3 & 4 &
G: ----------------|----------------|
D: ----------------|------------5---|
A: 5---5-0-3-5---0-|3---3-0---------|
E: ----------------|--------3-3-----|


  1 & 2 & 3 & 4 & 1 & 2 & 3 & 4 &
G: ----------------|----------------|
D: ----------------|----------------|
A: 5---5-0-3-5---0-|3---3-0---------|
E: ----------------|--------3-3-1---|

  1 & 2 & 3 & 4 & 1 & 2 & 3 & 4 &
G: ----------------|----------------|
D: ----------------|------------5---|
A: 5---5-00-305---0|3---3-0---------|
E: ----------------|--------3-3-----|


  1 & 2 & 3 & 4 & 1 & 2 & 3 & 4 &
G: ----------------|----------------|
D: ----------------|----------------|
A: 5---5-0-3-5---0-|3---3---0230----|
E: ----------------|------------3-1-|


  1 & 2 & 3 & 4 & 1 & 2 & 3 & 4 &
G: ----------------|----------------|
D: ----------------|------------5---|
A: 5---5-0-3-5---0-|3---3-0---------|
E: ----------------|--------3-3-----|


  1 & 2 & 3 & 4 & 1 & 2 & 3 & 4 &
G: ----------------|----------------|
D: ----------------|----------------|
A: 5---5-0-3-5---0-|3---3-0---------|
E: ----------------|--------3-3-1---|

  1 & 2 & 3 & 4 & 1 & 2 & 3 & 4 &
G: ----------------|----------------|
D: ----------------|------------5---|
A: 5---5-00-305---0|3---3-0---------|
E: ----------------|--------3-3-----|


  1 & 2 & 3 & 4 & 1 & 2 & 3 & 4 &
G: ----------------|----------------|
D: ----------------|----------------|
A: 5---5-0-3-5---0-|3---3---0230----|
E: ----------------|------------3-1-|


    (01:28)

  1 & 2 & 3 & 4 & 1 & 2 & 3 & 4 &
G: ----------------|----------------|
D: ----------------|-------------5--|
A: 5---5-00-35---0-|3---3-30--------|
E: ----------------|---------3-3----|


  1 & 2 & 3 & 4 & 1 & 2 & 3 & 4 &
G: ----------------|----------------|
D: ----------------|----------------|
A: 5---5-00-35---0-|3---3-30--------|
E: ----------------|---------3-3--1-|


  1 & 2 & 3 & 4 & 1 & 2 & 3 & 4 &
G: ----------------|----------------|
D: ----------------|-------------5--|
A: 5---5-00-35---0-|3---3-30--------|
E: ----------------|---------3-3----|


  1 & 2 & 3 & 4 & 1 & 2 & 3 & 4 &
G: ----------------|----------------|
D: ----------------|----------------|
A: 5---5-00-35---0-|3---3--0230-----|
E: ----------------|------------3-1-|

   (01:43)


  1 & 2 & 3 & 4 & 1 & 2 & 3 & 4 &
G: ----------------|----------------|
D: ----------------|----------------|
A: 2---2---0---0---|2--2----0---0---|
E: ------2---2---2-|------2---2---2-|


  1 & 2 & 3 & 4 & 1 & 2 & 3 & 4 &
G: ----------------|----------------|
D: ----------------|----------------|
A: ------5-8-5-8-5-|------5-8-5-8-5-|
E: 3--3------------|3--3------------|


  1 & 2 & 3 & 4 & 1 & 2 & 3 & 4 &
G: ----------------|----------------|
D: ----------------|----------------|
A: 2---2---0---0---|2--2----0---0---|
E: ------2---2---2-|------2---2---2-|


  1 & 2 & 3 & 4 & 1 & 2 & 3 & 4 &
G: ----------------|----------------|
D: ----------------|----------------|
A: ------5-8-5-8-5-|------5-8-5-8-5-|
E: 3--3------------|3--3------------|


  1 & 2 & 3 & 4 & 1 & 2 & 3 & 4 &
G: ----------------|----------------|
D: ----------------|----------------|
A: 2---2---0---0---|2--2----0---0---|
E: ------2---2---2-|------2---2---2-|

  1 & 2 & 3 & 4 & 1 & 2 & 3 & 4 &
G: ----------------|----------------|
D: ----------------|----------------|
A: ------5-8-5-8-5-|------0-3-0-3-0-|
E: 3--3------------|5--5------------|


  1 & 2 & 3 & 4 & 1 & 2 & 3 & 4 &
G: ----------------|----------------|
D: ----------------|----------------|
A: 2---2---0---0---|2--2----0---0---|
E: ------2---2---2-|------2---2---2-|

  (02:08)

  1 & 2 & 3 & 4 & 1 & 2 & 3 & 4 &
G: ----------------|----------------|
D: 12----10--------|----------------|
A: -----------12---|--10----8---5---|
E: ----------------|----------------|

   (02:13)

 1 & 2 & 3 & 4 & 1 & 2 & 3 & 4 &
G: ----------------|----------------|
D: ----------------|-------------5--|
A: 5---5-00-35---0-|3---3-30--------|
E: ----------------|---------3-3----|


  1 & 2 & 3 & 4 & 1 & 2 & 3 & 4 &
G: ----------------|----------------|
D: ----------------|----------------|
A: 5---5-00-35---0-|3---3-30--------|
E: ----------------|---------3-3--1-|


  1 & 2 & 3 & 4 & 1 & 2 & 3 & 4 &
G: ----------------|----------------|
D: ----------------|-------------5--|
A: 5---5-00-35---0-|3---3-30--------|
E: ----------------|---------3-3----|


  1 & 2 & 3 & 4 & 1 & 2 & 3 & 4 &
G: ----------------|----------------|
D: ----------------|----------------|
A: 5---5-00-35---0-|3---3--0230-----|
E: ----------------|------------3-1-|

      (02:27)


  1 & 2 & 3 & 4 & 1 & 2 & 3 & 4 &
G: ----------------|----------------|
D: ----------------|------------5---|
A: 5-----3-0-3-5-0-|3---3-0---------|
E: ----------------|--------3-3-----|


  1 & 2 & 3 & 4 & 1 & 2 & 3 & 4 &
G: ----------------|----------------|
D: ----------------|----------------|
A: 5-----3-0-3-5-0-|3---3-0---------|
E: ----------------|--------3-3-1---|

  1 & 2 & 3 & 4 & 1 & 2 & 3 & 4 &
G: ----------------|----------------|
D: ----------------|------------5---|
A: 5-----3-0-3-5-0-|3---3-0---------|
E: ----------------|--------3-3-----|


  1 & 2 & 3 & 4 & 1 & 2 & 3 & 4 &
G: ----------------|----------------|
D: ----------------|----------------|
A: 5-----3-0-3-5-0-|3---3-0---------|
E: ----------------|--------3-3-1---|


  1 & 2 & 3 & 4 & 1 & 2 & 3 & 4 &
G: ----------------|----------------|
D: ----------------|------------5---|
A: 5-----3-0-3-5-0-|3---3-0---------|
E: ----------------|--------3-3-----|


  1 & 2 & 3 & 4 & 1 & 2 & 3 & 4 &
G: ----------------|----------------|
D: ----------------|----------------|
A: 5-----3-0-3-5-0-|3---3-0---------|
E: ----------------|--------3-3-1---|

  1 & 2 & 3 & 4 & 1 & 2 & 3 & 4 &
G: ----------------|----------------|
D: ----------------|------------5---|
A: 5-----3-0-3-5-0-|3---3-0---------|
E: ----------------|--------3-3-----|


  1 & 2 & 3 & 4 & 1 & 2 & 3 & 4 &
G: ----------------|----------------|
D: ----------------|----------------|
A: 5-----3-0-3-5-0-|3---3-0---------|
E: ----------------|--------3-3-1---|
     (02:56)

  1 & 2 & 3 & 4 & 1 & 2 & 3 & 4 &
G: ----------------|----------------|
D: ----------------|-------------5--|
A: 5-5--00-3-5----0|3---3-0---------|
E: ----------------|--------3-3-----|


  1 & 2 & 3 & 4 & 1 & 2 & 3 & 4 &
G: ----------------|----------------|
D: ----------------|----------------|
A: 5-5--00-3-5----0|3---3-0---------|
E: ----------------|--------3-3--1--|


  1 & 2 & 3 & 4 & 1 & 2 & 3 & 4 &
G: ----------------|----------------|
D: ----------------|-------------5--|
A: 5-5--00-3-5----0|3---3-0---------|
E: ----------------|--------3-3-----|


  1 & 2 & 3 & 4 & 1 & 2 & 3 & 4 &
G: ----------------|----------------|
D: ----------------|----------------|
A: 5-5--00-3-5----0|3---3-0---------|
E: ----------------|--------3-3--1--|

     (03:10)

  1 & 2 & 3 & 4 & 1 & 2 & 3 & 4 &
G: ----------------|----------------|
D: ----------------|-------------5--|
A: 5-5--00-3-5----0|3---3-0---------|
E: ----------------|--------3-3-----|


  1 & 2 & 3 & 4 & 1 & 2 & 3 & 4 &
G: ----------------|----------------|
D: ----------------|----------------|
A: 5-5--00-3-5----0|3---3-0---------|
E: ----------------|--------3-3--1--|


  1 & 2 & 3 & 4 & 1 & 2 & 3 & 4 &
G: ----------------|----------------|
D: ----------------|-------------5--|
A: 5-5--00-3-5----0|3---3-0---------|
E: ----------------|--------3-3-----|


  1 & 2 & 3 & 4 & 1 & 2 & 3 & 4 &
G: ----------------|----------------|
D: ----------------|----------------|
A: 5-5--00-3-5----0|3---3-0---------|
E: ----------------|--------3-3--1--|

     (03:25)


1 & 2 & 3 & 4 & 1 & 2 & 3 & 4 &
G: ----------------|----------------|
D: ----------------|-------------5--|
A: 5-5--00-3-5----0|3---3-0---------|
E: ----------------|--------3-3-----|


  1 & 2 & 3 & 4 & 1 & 2 & 3 & 4 &
G: ----------------|----------------|
D: ----------------|----------------|
A: 5---5-00-35---0-|3---3--0230-----|
E: ----------------|------------3-1-|

Almost there ...

Sign in to get your own page with links to favourite songs and more. You are just one click away...

Login with Facebook Login with Google