Log in

One click and you are in

Login with Facebook Login with Google

Why sign up and log in

Guitar Tabs Explorer
Duran Duran bass tabs for Valentine stones

Bass tabs

VERSES
G |-----------------|-----------------|-----------------|-----------------|
D |-----------------|-----------------|-----------------|-----------------|
A |-----------------|-----------------|-----------------|-----------------|
E |7-7-7-7x0--------|7-7-7-7x0--------|7-7-7-7x0--------|7-7-7-7x0--------|

G |-----------------|-----------------|-----------------|-----------------|
D |-----------------|-----------------|-----------------|-----------------|
A |-----------------|-----------------|5-5-5-5x0--------|8-8-8-8x0--------|
E |7-7-7-7x0--------|7-7-7-7x0--------|-----------------|-----------------|

G |-----------------|-----------------|-----------------|-----------------|
D |-----------------|-----------------|-----------------|-----------------|
A |-----------------|-----------------|5-5-5-5x0--------|8-8-8-8x0--------|
E |7-7-7-7x0--------|7-7-7-7x0--------|-----------------|-----------------|

G |-----------------|-----------------|-----------------|-----------------|
D |-----------------|-----------------|-----------------|-----------------|
A |-----------------|-----------------|5-5-5-5x0--------|8-8-8-8x0--------|
E |7-7-7-7x0--------|7-7-7-7x0--------|-----------------|-----------------|

G |-----------------|-----------------|-----------------|-----------------|
D |-----------------|-----------------|-----------------|-----------------|
A |-----------------|-----------------|5-5-5-5x0--------|8-8-8-8x0--------|
E |7-7-7-7x0--------|7-7-7-7x0--------|-----------------|-----------------|

VERSES again
G |-----------------|-----------------|-----------------|-----------------|
D |-----------------|-----------------|-----------------|-----------------|
A |-----------------|-----------------|5-5-5-5x0--------|8-8-8-8x0--------|
E |7-7-7-7x0--------|7-7-7-7x0--------|-----------------|-----------------|

G |-----------------|-----------------|-----------------|-----------------|
D |-----------------|-----------------|-----------------|-----------------|
A |-----------------|-----------------|5-5-5-5x0--------|8-8-8-8x0--------|
E |7-7-7-7x0--------|7-7-7-7x0--------|-----------------|-----------------|

G |-----------------|-----------------|-----------------|-----------------|
D |-----------------|-----------------|-----------------|-----------------|
A |-----------------|-----------------|5-5-5-5x0--------|8-8-8-8x0--------|
E |7-7-7-7x0--------|7-7-7-7x0--------|-----------------|-----------------|

G |-----------------|-----------------|-----------------|-----------------|
D |-----------------|-----------------|-----------------|-----------------|
A |-----------------|-----------------|5-5-5-5x0--------|8-8-8-8x0--------|
E |7-7-7-7x0--------|7-7-7-7x0--------|-----------------|-----------------|

CHORUS
G |-----------------|-----------------|-----------------|-----------------|
D |-----------------|-----------------|-----------------|-----------------|
A |7-7-7-7X0--------|10-10-10-10X0----|10-10-10-10X0----|-----------------|
E |-----------------|-----------------|-----------------|7-7-7-7x0--------|

G |-----------------|-----------------|-----------------|-----------------|
D |-----------------|-----------------|-----------------|-----------------|
A |7-7-7-7X0--------|10-10-10-10X0----|10-10-10-10X0----|-----------------|
E |-----------------|-----------------|-----------------|7-7-7-7x0--------|

G |-----------------|-----------------|-----------------|-----------------|
D |-----------------|-----------------|-----------------|-----------------|
A |7-7-7-7X0--------|10-10-10-10X0----|10-10-10-10X0----|-----------------|
E |-----------------|-----------------|-----------------|7-7-7-7x0--------|

VERSES
G |-----------------|-----------------|-----------------|-----------------|
D |-----------------|-----------------|-----------------|-----------------|
A |-----------------|-----------------|-----------------|-----------------|
E |7-7-7-7x0--------|7-7-7-7x0--------|7-7-7-7x0--------|7-7-7-7x0--------|

G |-----------------|-----------------|-----------------|-----------------|
D |-----------------|-----------------|-----------------|-----------------|
A |-----------------|-----------------|5-5-5-5x0--------|8-8-8-8x0--------|
E |7-7-7-7x0--------|7-7-7-7x0--------|-----------------|-----------------|

G |-----------------|-----------------|-----------------|-----------------|
D |-----------------|-----------------|-----------------|-----------------|
A |-----------------|-----------------|5-5-5-5x0--------|8-8-8-8x0--------|
E |7-7-7-7x0--------|7-7-7-7x0--------|-----------------|-----------------|

G |-----------------|-----------------|-----------------|-----------------|
D |-----------------|-----------------|-----------------|-----------------|
A |-----------------|-----------------|5-5-5-5x0--------|8-8-8-8x0--------|
E |7-7-7-7x0--------|7-7-7-7x0--------|-----------------|-----------------|

G |-----------------|-----------------|-----------------|-----------------|
D |-----------------|-----------------|-----------------|-----------------|
A |-----------------|-----------------|5-5-5-5x0--------|8-8-8-8x0--------|
E |7-7-7-7x0--------|7-7-7-7x0--------|-----------------|-----------------|


CHORUS
G |-----------------|-----------------|-----------------|-----------------|
D |-----------------|-----------------|-----------------|-----------------|
A |7-7-7-7X0--------|10-10-10-10X0----|10-10-10-10X0----|-----------------|
E |-----------------|-----------------|-----------------|7-7-7-7x0--------|

G |-----------------|-----------------|-----------------|-----------------|
D |-----------------|-----------------|-----------------|-----------------|
A |7-7-7-7X0--------|10-10-10-10X0----|10-10-10-10X0----|-----------------|
E |-----------------|-----------------|-----------------|7-7-7-7x0--------|

G |-----------------|-----------------|-----------------|-----------------|
D |-----------------|-----------------|-----------------|-----------------|
A |7-7-7-7X0--------|10-10-10-10X0----|10-10-10-10X0----|-----------------|
E |-----------------|-----------------|-----------------|7-7-7-7x0--------|

G |-----------------|-----------------|-----------------|-----------------|
D |-----------------|-----------------|-----------------|-----------------|
A |7-7-7-7X0--------|10-10-10-10X0----|10-10-10-10X0----|-----------------|
E |-----------------|-----------------|-----------------|7-7-7-7x0--------|

G |-----------------|-----------------|-----------------|-----------------|
D |-----------------|-----------------|-----------------|-----------------|
A |7-7-7-7X0--------|10-10-10-10X0----|10-10-10-10X0----|-----------------|
E |-----------------|-----------------|-----------------|7-7-7-7x0--------|

G |-----------------|-----------------|-----------------|-----------------|
D |-----------------|-----------------|-----------------|-----------------|
A |7-7-7-7X0--------|10-10-10-10X0----|10-10-10-10X0----|-----------------|
E |-----------------|-----------------|-----------------|7-7-7-7x0--------|

FINAL/OUTRO
G |-----------------|-----------------|-----------------|-----------------|
D |-----------------|-----------------|-----------------|-----------------|
A |-----------------|-----------------|-----------------|-----------------|
E |7-7-7-7x0--------|7-7-7-7x0--------|7-7-7-7x0--------|7-7-7-7x0--------|

Almost there ...

Sign in to get your own page with links to favourite songs and more. You are just one click away...

Login with Facebook Login with Google