Log in

One click and you are in

Login with Facebook Login with Google

Why sign up and log in

Guitar Tabs Explorer
Duran Duran bass tabs for Universe alone

Bass tabs

Intro 0:53
G |-----------------|-----------------|-----------------|
D |-----------------|-----------------|-----------------|
A |1~---------------|-----------------|5~---------------|
E |-----------------|3~---------------|-----------------|

G |-----------------|-----------------|-----------------|-----------------|
D |-----------------|-----------------|-----------------|3~---------------|
A |1~---------------|-----------------|5~---------------|-----------------|
E |-----------------|3~---------------|-----------------|-----------------|

G |-----------------|-----------------|-----------------|-----------------|
D |-----------------|-----------------|-----------------|3~---------------|
A |1~---------------|-----------------|5~---------------|-----------------|
E |-----------------|3~---------------|-----------------|-----------------|

G |-----------------|-----------------|-----------------|
D |-----------------|-----------------|-----------------|
A |1~---------------|-----------------|5~---------------|
E |-----------------|3~---------------|-----------------|

Verses
G |-----------------|-----------------|-----------------|
D |-----------------|-----------------|-----------------|
A |3/1--313-5>------|55---------------|535-7>-----------|
E |-----------------|---3-3-3/1-------|-----------------|

G |-----------------|-----------------|-----------------|-----------------|
D |-----------------|-----------------|-----------------|-----------------|
A |7----------------|313------5>------|55---------------|535-7>-----------|
E |--3-3-3/1--------|-----------------|---3-3-3/1-------|-----------------|

G |-----------------|-----------------|-----------------|-----------------|
D |-----------------|-----------------|-----------------|-----------------|
A |7----------------|313------5>------|55---------------|535-7>-----------|
E |--3-3-3/1--------|-----------------|---3-3-3/1-------|-----------------|

G |-----------------|-----------------|-----------------|-----------------|
D |-----------------|-----------------|-----------------|-----------------|
A |7----------------|313------5>------|55---------------|535-7>-----------|
E |--3-3-3/1--------|-----------------|---3-3-3/1-------|-----------------|

G |-----------------|-----------------|-----------------|-----------------|
D |-----------------|-----------------|-----------------|-----------------|
A |7----------------|313------5>------|55---------------|535-7>-----------|
E |--3-3-3/1--------|-----------------|---3-3-3/1-------|-----------------|

G |-----------------|-----------------|-----------------|-----------------|
D |-----------------|-----------------|-----------------|-----------------|
A |7----------------|313------5>------|55---------------|535-7>-----------|
E |--3-3-3/1--------|-----------------|---3-3-3/1-------|-----------------|

Chorus
G |-----------------|-----------------|-----------------|-----------------|
D |-----------------|-----------------|-----------------|------------3~---|
A |1~---------------|-----------------|5~---------------|-----------------|
E |-----------------|3~---------------|-----------------|-----------------|

G |-----------------|-----------------|-----------------|-----------------|
D |-----------------|-----------------|-----------------|------------3~---|
A |1~---------------|-----------------|5~---------------|-----------------|
E |-----------------|3~---------------|-----------------|-----------------|

G |-----------------|-----------------|-----------------|-----------------|
D |-----------------|-----------------|-----------------|------------3~---|
A |1~---------------|-----------------|5~---------------|-----------------|
E |-----------------|3~---------------|-----------------|-----------------|

G |-----------------|-----------------|-----------------|-----------------|
D |-----------------|-----------------|-----------------|------------3~---|
A |1~---------------|-----------------|5~---------------|-----------------|
E |-----------------|3~---------------|-----------------|-----------------|

Verses
G |-----------------|-----------------|-----------------|-----------------|
D |-----------------|-----------------|-----------------|-----------------|
A |7----------------|313------5>------|55---------------|535-7>-----------|
E |--3-3-3/1--------|-----------------|---3-3-3/1-------|-----------------|

G |-----------------|-----------------|-----------------|-----------------|
D |-----------------|-----------------|-----------------|-----------------|
A |7----------------|313------5>------|55---------------|535-7>-----------|
E |--3-3-3/1--------|-----------------|---3-3-3/1-------|-----------------|

G |-----------------|-----------------|-----------------|-----------------|
D |-----------------|-----------------|-----------------|-----------------|
A |7----------------|313------5>------|55---------------|535-7>-----------|
E |--3-3-3/1--------|-----------------|---3-3-3/1-------|-----------------|

G |-----------------|-----------------|-----------------|-----------------|
D |-----------------|-----------------|-----------------|-----------------|
A |7----------------|313------5>------|55---------------|535-7>-----------|
E |--3-3-3/1--------|-----------------|---3-3-3/1-------|-----------------|

G |-----------------|-----------------|-----------------|-----------------|
D |-----------------|-----------------|-----------------|-----------------|
A |7----------------|313------5>------|55---------------|535-7>-----------|
E |--3-3-3/1--------|-----------------|---3-3-3/1-------|-----------------|

Final/Outro (with guitar solo)
G |-----------------|-----------------|-----------------|-----------------|
D |-----------------|-----------------|-----------------|------------3~---|
A |1~---------------|-----------------|5~---------------|-----------------|
E |-----------------|3~---------------|-----------------|-----------------|

G |-----------------|-----------------|-----------------|-----------------|
D |-----------------|-----------------|-----------------|------------3~---|
A |1~---------------|-----------------|5~---------------|-----------------|
E |-----------------|3~---------------|-----------------|-----------------|

G |-----------------|-----------------|-----------------|-----------------|
D |-----------------|-----------------|-----------------|------------3~---|
A |1~---------------|-----------------|5~---------------|-----------------|
E |-----------------|3~---------------|-----------------|-----------------|

G |-----------------|-----------------|-----------------|-----------------|
D |-----------------|-----------------|-----------------|------------3~---|
A |1~---------------|-----------------|5~---------------|-----------------|
E |-----------------|3~---------------|-----------------|-----------------|

Almost there ...

Sign in to get your own page with links to favourite songs and more. You are just one click away...

Login with Facebook Login with Google