Log in

One click and you are in

Login with Facebook Login with Google

Why sign up and log in

Guitar Tabs Explorer
Duran Duran bass tabs for Umf

Bass tabs

Album: Duran Duran (Wedding Album)
Tabbed by: madnessbass  33ryan@fsmail.net

----------|----------|----------|--------------|----------|----------|
----------|----------|----------|--------------|----------|----------|
----------|----------|-5-5--5-5-|-5-5----------|----------|----------|
-5-5--5-5-|-5-5--5-5-|----------|-----8--7-7-6-|-5-5--5-5-|-5-5--5-5-|

----------|---------------|----------|----------|----------|---------------|
----------|---------------|----------|----------|----------|---------------|
-5-5--5-5-|-5-5---5-5-5-5-|----------|----------|-5-5--5-5-|-5-5---5-5-5-5-|
----------|---------------|-5-5--5-5-|-5-5--5-5-|----------|---------------|

----------|----------|----------|--------------|----------|------------|
----------|----------|----------|--------------|----------|------------|
----------|----------|-5-5--5-5-|-5-5----------|----------|------------|
-5-5--5-5-|-5-5--5-5-|----------|-----8--7-7-6-|-5-5--5-5-|-5-5--5-5---|

----------|--------------|----------|----------|----------|---------------|
----------|--------------|----------|----------|----------|---------------|
-5-5--5-5-|-5-5----------|----------|----------|-5-5--5-5-|-5-5-----------|
----------|-----8--7-7-6-|-5-5--5-5-|-5-5--5-5-|----------|-----8--7-7-6--|

----------|----------|----------|--------|----------|----------|----------|
----------|----------|----------|--------|----------|----------|----------|
----------|----------|----------|--------|----------|----------|-5-5--5-5-|
-5-5--5-5-|-5-5--5-5-|-5-5--5-5-|-3-3--3-|-5-5--5-5-|-5-5--5-5-|----------|

--------------|----------|----------|----------|--------------|-----------|
--------------|----------|----------|----------|--------------|-----------|
-5-5----------|----------|----------|-5-5--5-5-|-5-5--5-5-5-5-|-----------|
-----8--7-7-6-|-5-5--5-5-|-5-5--5-5-|----------|--------------|-5-5--5-5--|

----------|----------|--------------|----------|----------|------------|
----------|----------|--------------|----------|----------|------------|
----------|-5-5--5-5-|-5-5----------|----------|----------|-5-5--5-5---|
-5-5--5-5-|----------|-----8--7-7-6-|-5-5--5-5-|-5-5--5-5-|------------|

--------------|----------|------------|-------|------|----------|------------|
--------------|----------|------------|-----2-|------|----------|------------|
-5-5----------|----------|------------|---4---|------|----------|------------|
-----8--7-7-6-|-2-2--2-2-|-2-2--3-3-2-|-2-----|-2----|-2-2--2-2-|-2-2--3-3-2-|

-------|-------------|----------|----------|----------|--------------|
-----2-|-------------|----------|----------|----------|--------------|
---4---|-7-5--5-5--4-|----------|----------|-5-5--5-5-|-5-5----------|
-2-----|-------------|-5-5--5-5-|-5-5--5-5-|----------|-----8--7-7-6-|

----------|----------|----------|--------------|
----------|----------|----------|--------------|
----------|----------|-5-5--5-5-|-5-5----------|
-5-5--5-5-|-5-5--5-5-|----------|-----8--7-7-6-|

Play next section twice:
----------|----------|----------|--------------|----------|-----------|
----------|----------|----------|--------------|----------|-----------|
----------|----------|-5-5--5-5-|-5-5----------|----------|-----------|
-5-5--5-5-|-5-5--5-5-|----------|-----8--7-7-6-|-5-5--5-5-|-5-5--5-5--|

----------| |--------------|-|-----------------|
----------| |--------------|-|-----------------|
-5-5--5-5-| |-5-5----------|-|-----------------|
----------| |-----8--7-7-6-|-|-3-3-5-5-3-2-0-0-|
       1st ending      2nd ending

Play next section three times:
----------|----------|-------------|----------------| |---------|Play
----------|----------|-------------|----------------| |---------|this
----------|----------|-5-5--5-5--5-|----------------| |---------|after the
-5-5--5-5-|-5-5--5-5-|-------------|-3-3--3-3-3-2-0-| |-5-5--|3-|rd time


Break!!!!

Finale:
---------------|----------------|---------------|------------------|Repeat
---------------|----------------|---------------|------------------|till
-5-5--5-5-5--5-|5-5--5-5-5-7-7--|---------------|-----------7-7----|finish!
---------------|----------------|-7-7--7-7-7--7-|7-7--7-7-7--------|

Almost there ...

Sign in to get your own page with links to favourite songs and more. You are just one click away...

Login with Facebook Login with Google