Log in

One click and you are in

Login with Facebook Login with Google

Why sign up and log in

Guitar Tabs Explorer
Duran Duran bass tabs for Too much information

Too Much Information bass tab by Duran Duran

Duran Duran bass tabs for Too much information

Bass tabs

INTRO

G |----------------------------------|-----------------|
D |----------------------------------|-----------------|
A |--12-4-----12-4-------------------|4-4x4-4x--44-----|
E |----------------------------------|-----------------|
VERSES + CHORUS


G |-----------------|-----------------|-----------------|-----------------|
D |-----------------|-----------------|-----------------|-----------------|
A |-----------------|-----------------|666-46-446-------|-----------------|
E |6-6-46-446-------|666-46-446-------|-----------------|444-34-334-------|

G |-----------------|-----------------|-----------------|-----------------|
D |-----------------|-----------------|-----------------|-----------------|
A |-----------------|-----------------|666-46-446-------|-----------------|
E |6-6-46-446-------|666-46-446-------|-----------------|444-34-334-------|

G |-------------------|
D |-----------8-------|
A |-------------------|
E |6-6-46-446---4-3-44|


G |-----------------|----------------|-----------------|-----------------|
D |-----------------|----------------|-----------------|-----------------|
A |-----------------|----------------|-----------------|-----------------|
E |6-6-46-446-------|4-434-4-4-------|4666-46-446------|3444-34-334------|

G |-----------------|----------------|-----------------|-----------------|
D |-----------------|----------------|-----------------|-----------------|
A |-----------------|----------------|-----------------|-----------------|
E |6-6-46-446-------|4-434-4-4-------|4666-46-446------|3444-34-334------|

G |-----------------|-----------------|-----------------|-----------------|-----------------|------------------|
D |-----------------|-----------------|-----------------|-----------------|-----------------|------------------|
A |666--64--664-----|3444-34-334------|666--64--664-----|3444-34-334------|666--64--664-----|3444-34-334-44--4>|
E |-----------------|-----------------|-----------------|-----------------|-----------------|------------------|


G |-----------------|-----------------|-----------------|-----------------|
D |-----------------|-----------------|-----------------|-----------------|
A |-----------------|-----------------|666-46-446-------|-----------------|
E |6-6-46-446-------|666-46-446-------|-----------------|444-34-334-------|

G |-----------------|-----------------|-----------------|-----------------|
D |-----------------|-----------------|-----------------|-----------------|
A |-----------------|-----------------|666-46-446-------|-----------------|
E |6-6-46-446-------|666-46-446-------|-----------------|444-34-334-------|


G |-------------------|
D |-----------8-------|
A |-------------------|
E |6-6-46-446---4-3-44|


G |-----------------|----------------|-----------------|-----------------|
D |-----------------|----------------|-----------------|-----------------|
A |-----------------|----------------|-----------------|-----------------|
E |6-6-46-446-------|4-434-4-4-------|4666-46-446------|3444-34-334------|

G |-----------------|----------------|-----------------|-----------------|
D |-----------------|----------------|-----------------|-----------------|
A |-----------------|----------------|-----------------|-----------------|
E |6-6-46-446-------|4-434-4-4-------|4666-46-446------|3444-34-334------|


G |-----------------|-----------------|-----------------|-----------------|-----------------|------------------|
D |-----------------|-----------------|-----------------|-----------------|-----------------|------------------|
A |666--64--664-----|3444-34-334------|666--64--664-----|3444-34-334------|666--64--664-----|3444-34-334-44--4>|
E |-----------------|-----------------|-----------------|-----------------|-----------------|------------------|


G |-----------------|-----------------|-----------------|-----------------|
D |-----------------|-----------------|-----------------|-----------------|
A |-----------------|-----------------|666-46-446-------|-----------------|
E |6-6-46-446-------|666-46-446-------|-----------------|444-34-334-------|

G |-----------------|-----------------|-----------------|-----------------|
D |-----------------|-----------------|-----------------|-----------------|
A |-----------------|-----------------|666-46-446-------|-----------------|
E |6-6-46-446-------|666-46-446-------|-----------------|444-34-334-------|


G |-----------------|-----------------|-----------------|-----------------|
D |-----------------|-----------------|-----------------|-----------------|
A |-----------------|-----------------|666-46-446-------|-----------------|
E |6-6-46-446-------|666-46-446-------|-----------------|444-34-334-------|

G |-----------------|-----------------|-----------------|-----------------|
D |-----------------|-----------------|-----------------|-----------------|
A |-----------------|-----------------|666-46-446-------|-----------------|
E |6-6-46-446-------|666-46-446-------|-----------------|444-34-334-------|


INTERLUDE


G |-----------------|-----------------|-----------------|-----------------|
D |-----------------|---3---3---------|-----------------|---3---3---------|
A |3-313-13---------|-----------------|3-313-13---------|-----------------|
E |-----------------|11---1---1-------|-----------------|11---1---1-------|

G |-----------------|-----------------|----------------|------------|
D |-----------------|---6---6---------|---5---5--------|------------|
A |3-313-13---------|-----------------|----------------|86-86-868---|
E |-----------------|44---4---4-------|33---3---3------|----------6-|


FINAL/OUTRO

G |-----------------|-----------------|-----------------|-----------------|
D |-----------------|-----------------|-----------------|-----------------|
A |-----------------|-----------------|666-46-446-------|-----------------|
E |6-6-46-446-------|666-46-446-------|-----------------|444-34-334-------|

G |-----------------|-----------------|-----------------|-----------------|
D |-----------------|-----------------|-----------------|-----------------|
A |-----------------|-----------------|666-46-446-------|-----------------|
E |6-6-46-446-------|666-46-446-------|-----------------|444-34-334-------|

G |-----------------|-----------------|-----------------|-----------------|
D |-----------------|-----------------|-----------------|-----------------|
A |-----------------|-----------------|666-46-446-------|-----------------|
E |6-6-46-446-------|666-46-446-------|-----------------|444-34-334-------|

G |-----------------|-----------------|-----------------|-----------------|
D |-----------------|-----------------|-----------------|-----------------|
A |-----------------|-----------------|666-46-446-------|-----------------|
E |6-6-46-446-------|666-46-446-------|-----------------|444-34-334-------|

Almost there ...

Sign in to get your own page with links to favourite songs and more. You are just one click away...

Login with Facebook Login with Google