Log in

One click and you are in

Login with Facebook Login with Google

Why sign up and log in

Guitar Tabs Explorer
Duran Duran bass tabs for Too bad youre so beautiful

Too Bad You're So Beautiful bass tab by Duran Duran

Duran Duran bass tabs for Too bad youre so beautiful

Bass tabs

Verse 1
G |-----------------|-----------------|-----------------|-----------------|
D |-----------------|-----------------|-----------------|-----------------|
A |2/5-5-55-5-------|2/5-5-55-5-------|5/7-7-77-7-------|5/7-7-77-7-------|
E |-----------------|-----------------|-----------------|-----------------|

G |-----------------|-----------------|-----------------|-----------------|
D |-----------------|-----------------|-----------------|-----------------|
A |2/5-5-55-5-------|2/5-5-55-5-------|5/7-7-77-7-------|5/7-7-77-7-------|
E |-----------------|-----------------|-----------------|-----------------|
Verse 2
G |-----------------|-----------------|-----------------|-----------------|
D |-----------------|-----------------|-----------------|-----------------|
A |5-55-55-5-5-0----|5-55-55-5-5-0----|2-22-22-2-2-0----|2-22-22-2-2-3----|
E |-----------------|-----------------|-----------------|-----------------|

G |-----------------|-----------------|-----------------|-----------------|
D |-----------------|-----------------|-----------------|-----------------|
A |5-55-55-5-5-0----|5-55-55-5-5-0----|2-22-22-2-2-0----|2-22-22-2-2-3----|
E |-----------------|-----------------|-----------------|-----------------|

G |-----------------|-----------------|-----------------|-----------------|
D |-----------------|-----------------|-----------------|-----------------|
A |5-55-55-5-5-0----|5-55-55-5-5-0----|2-22-22-2-2-0----|2-22-22-2-2-3----|
E |-----------------|-----------------|-----------------|-----------------|


Verse 3
G |-----------------|-----------------|-----------------|-----------------|
D |-----------------|-----------------|-----------------|-----------------|
A |-----------------|-----------------|-----------------|-----------------|
E |5-3-2-0-00-------|5-3-2-0-00-------|4-3-2-0----------|4-3-2-0----------|

Pre Chorus
G |-----------------|-----------------|-----------------|-----------------|
D |-----------------|-----------------|-----------------|-----------------|
A |2-22-0-2---------|22-0-2-----------|22-0-2-----------|22-0-2-----------|
E |-----------------|-----------------|-----------------|-----------------|

G |-----------------|-----------------|-----------------|-----------------|
D |-----------------|-----------------|-----------------|-----------------|
A |22-0-2-----------|22-0-2-----------|22-0-2-----------|22-0-------------|
E |-----------------|-----------------|-----------------|-----------------|


Chorus
G |-----------------|-----------------|-----------------|-----------------|
D |-----------------|-----------------|-----------------|-----------------|
A |10-7/10-10-------|7-4/7-7----------|2-0-22-----------|9-6/9-9----------|
E |-----------------|-----------------|-----------------|-----------------|

G |-----------------|-----------------|-----------------|-----------------|
D |-----------------|-----------------|-----------------|-----------------|
A |10-7/10-10-------|7-4/7-7----------|2-0-22-----------|9-6/9-9----------|
E |-----------------|-----------------|-----------------|-----------------|

G |-----------------|-----------------|-----------------|-----------------|
D |-----------------|-----------------|-----------------|-----------------|
A |10-7/10-10-------|7-4/7-7----------|2-0-22-----------|9-6/9-9----------|
E |-----------------|-----------------|-----------------|-----------------|

G |-----------------|-----------------|-----------------|-----------------|
D |-----------------|-----------------|-----------------|-----------------|
A |10-7/10-10-------|7-4/7-7----------|2-22-0-2---------|22-0-22----------|
E |-----------------|-----------------|-----------------|-----------------|


Verse 2
G |-----------------|-----------------|-----------------|-----------------|
D |-----------------|-----------------|-----------------|-----------------|
A |5-55-55-5-5-0----|5-55-55-5-5-0----|2-22-22-2-2-0----|2-22-22-2-2-3----|
E |-----------------|-----------------|-----------------|-----------------|

G |-----------------|-----------------|-----------------|-----------------|
D |-----------------|-----------------|-----------------|-----------------|
A |5-55-55-5-5-0----|5-55-55-5-5-0----|2-22-22-2-2-0----|2-22-22-2-2-3----|
E |-----------------|-----------------|-----------------|-----------------|

G |-----------------|-----------------|-----------------|-----------------|
D |-----------------|-----------------|-----------------|-----------------|
A |5-55-55-5-5-0----|5-55-55-5-5-0----|2-22-22-2-2-0----|2-22-22-2-2-3----|
E |-----------------|-----------------|-----------------|-----------------|


Verse 3
G |-----------------|-----------------|-----------------|-----------------|
D |-----------------|-----------------|-----------------|-----------------|
A |-----------------|-----------------|-----------------|-----------------|
E |5-3-2-0-00-------|5-3-2-0-00-------|4-3-2-0----------|4-3-2-0----------|


Pre Chorus
G |-----------------|-----------------|-----------------|-----------------|
D |-----------------|-----------------|-----------------|-----------------|
A |2-22-0-2---------|22-0-2-----------|22-0-2-----------|22-0-2-----------|
E |-----------------|-----------------|-----------------|-----------------|

G |-----------------|-----------------|-----------------|-----------------|
D |-----------------|-----------------|-----------------|-----------------|
A |22-0-2-----------|22-0-2-----------|22-0-2-----------|22-0-------------|
E |-----------------|-----------------|-----------------|-----------------|


Chorus
G |-----------------|-----------------|-----------------|-----------------|
D |-----------------|-----------------|-----------------|-----------------|
A |10-7/10-10-------|7-4/7-7----------|2-0-22-----------|9-6/9-9----------|
E |-----------------|-----------------|-----------------|-----------------|

G |-----------------|-----------------|-----------------|-----------------|
D |-----------------|-----------------|-----------------|-----------------|
A |10-7/10-10-------|7-4/7-7----------|2-0-22-----------|9-6/9-9----------|
E |-----------------|-----------------|-----------------|-----------------|

G |-----------------|-----------------|-----------------|-----------------|
D |-----------------|-----------------|-----------------|-----------------|
A |10-7/10-10-------|7-4/7-7----------|2-0-22-----------|9-6/9-9----------|
E |-----------------|-----------------|-----------------|-----------------|

G |-----------------|-----------------|-----------------|-----------------|
D |-----------------|-----------------|-----------------|-----------------|
A |10-7/10-10-------|7-4/7-7----------|2-22-0-2---------|22-0-22----------|
E |-----------------|-----------------|-----------------|-----------------|

Interlude
G |4-44-44-----4----|2-22-22-----2----|-----------------|-----------------|
D |-----------------|-----------------|2-22-22-----0----|2-22-22------2---|
A |-----------------|-----------------|-----------------|-----------------|
E |-----------------|-----------------|-----------------|-----------------|

G |4-44-44-----4/7--|2-22-22-----2----|-----------------|-----------------|
D |-----------------|-----------------|2-22-22-----0----|2-22-22------0---|
A |-----------------|-----------------|-----------------|-----------------|
E |-----------------|-----------------|-----------------|-----------------|

G |-----------------|-----------------|-----------------|-----------------|
D |-----------------|-----------------|2-22-22-----2----|2-22-22----------|
A |2-22-22----2-----|0-00-00-----0----|-----------------|-----------------|
E |-----------------|-----------------|-----------------|-----------------|

G |-----------------|-----------------|-----------------|-----------------|
D |-----------------|-----------------|2-22-22-----2----|2-22-22----------|
A |2-22-22----2-----|0-00-00-----0----|-----------------|-----------------|
E |-----------------|-----------------|-----------------|-----------------|

G |-----------------|-----------------|-----------------|-----------------|
D |-----------------|-----------------|2-22-22-----2----|2-22-22----------|
A |2-22-22----2-----|0-00-00-----0----|-----------------|-----------------|
E |-----------------|-----------------|-----------------|-----------------|


Pre Chorus
G |-----------------|-----------------|-----------------|-----------------|
D |-----------------|-----------------|-----------------|-----------------|
A |2-22-0-2---------|22-0-2-----------|22-0-2-----------|22-0-2-----------|
E |-----------------|-----------------|-----------------|-----------------|

G |-----------------|-----------------|-----------------|-----------------|
D |-----------------|-----------------|-----------------|-----------------|
A |22-0-2-----------|22-0-2-----------|22-0-2-----------|22-0-------------|
E |-----------------|-----------------|-----------------|-----------------|


Chorus/Final
G |-----------------|-----------------|-----------------|-----------------|
D |-----------------|-----------------|-----------------|-----------------|
A |10-7/10-10-------|7-4/7-7----------|2-0-22-----------|9-6/9-9----------|
E |-----------------|-----------------|-----------------|-----------------|

G |-----------------|-----------------|-----------------|-----------------|
D |-----------------|-----------------|-----------------|-----------------|
A |10-7/10-10-------|7-4/7-7----------|2-0-22-----------|9-6/9-9----------|
E |-----------------|-----------------|-----------------|-----------------|

G |-----------------|-----------------|-----------------|-----------------|
D |-----------------|-----------------|-----------------|-----------------|
A |10-7/10-10-------|7-4/7-7----------|2-0-22-----------|9-6/9-9----------|
E |-----------------|-----------------|-----------------|-----------------|

G |-----------------|-----------------|-----------------|-----------------|
D |-----------------|-----------------|-----------------|-----------------|
A |10-7/10-10-------|7-4/7-7----------|2-0-22-----------|9-6/9-9----------|
E |-----------------|-----------------|-----------------|-----------------|

G |-----------------|-----------------|-----------------|-----------------|
D |-----------------|-----------------|-----------------|-----------------|
A |10-7/10-10-------|7-4/7-7----------|2-0-22-----------|9-6/9-9----------|
E |-----------------|-----------------|-----------------|-----------------|

G |-----------------|-----------------|-----------------|-----------------|
D |-----------------|-----------------|-----------------|-----------------|
A |10-7/10-10-------|7-4/7-7----------|2-0-22-----------|9-6/9-9----------|
E |-----------------|-----------------|-----------------|-----------------|

Almost there ...

Sign in to get your own page with links to favourite songs and more. You are just one click away...

Login with Facebook Login with Google