Log in

One click and you are in

Login with Facebook Login with Google

Why sign up and log in

Guitar Tabs Explorer
Duran Duran bass tabs for To the shore

Bass tabs

Tabbed by: zowie54@gmail.com


(01:18)

G| ---------------|----------------|----------------|----------------|
D| -------------2-|3-----3-3-2-----|----------2-----|3-----3-3-2-----|
A| 0-----0-0-2-3---|------------3-2-|0-----0-0---3-2-|------------3-2-|
E| ---------------|----------------|----------------|----------------|
  A   A A B C E F   F F E C B A   A A E C B F   F F E C B

M| 1 & 2 & 3 & 4 & |1 & 2 & 3 & 4 & |1 & 2 & 3 & 4 & |1 & 2 & 3 & 4 & |

G| ---------------|----------------|----------------|----------------|
D| ---------2-----|3-----3-3-2-----|2-----2-2-----2-|5-----5-8-5-8-5-|
A| 0-----0-0---3-2-|------------3-2-|----------3-3---|----------------|
E| ---------------|----------------|----------------|----------------|
  A   A A E C B F   F F E C B E   E E C C E G   G A G A G
M| 1 & 2 & 3 & 4 & |1 & 2 & 3 & 4 & |1 & 2 & 3 & 4 & |1 & 2 & 3 & 4 & |


G| ---------------|----------------|----------------|----------------|
D| -------------2-|3-----3-3-2-----|--------------2-|3-----3-3-2-----|
A| 0-----0-0-2-3---|------------3-2-|0-----0-0-2-3---|------------3-2-|
E| ---------------|----------------|----------------|----------------|

M| 1 & 2 & 3 & 4 & |1 & 2 & 3 & 4 & |1 & 2 & 3 & 4 & |1 & 2 & 3 & 4 & |

G| ---------------|----------------|----------------|----------------|
D| ---------2-----|3-----3-3-2-----|2-----2-2-----2-|--------5-3-----|
A| 0-----0-0---3-2-|------------3-2-|----------3-3---|------------5-3-|
E| ---------------|----------------|----------------|3-----3---------|

M| 1 & 2 & 3 & 4 & |1 & 2 & 3 & 4 & |1 & 2 & 3 & 4 & |1 & 2 & 3 & 4 & |

G| ---------------|----------------|----------------|----------------|
D| -------------2-|3-----3-3-2-----|--------------2-|3-----3-3-------|
A| 0-----0-0-2-3---|------------3-2-|0-----0-0-2-3---|----------3-1-3-|
E| ---------------|----------------|----------------|1-----1-1-------|

M| 1 & 2 & 3 & 4 & |1 & 2 & 3 & 4 & |1 & 2 & 3 & 4 & |1 & 2 & 3 & 4 & |

G| ---------------|----------------|----------------|------03---2-0--|
D| ---------2-----|3-----3-3-2-----|2-----2-2-----2-|5-------0-3----3|
A| 0-----0-0---3-2-|------------3-2-|----------3-3---|----------------|
E| ---------------|----------------|----------------|----------------|

M| 1 & 2 & 3 & 4 & |1 & 2 & 3 & 4 & |1 & 2 & 3 & 4 & |1 & 2 & 3 & 4 & |

G| ---------------|----------------|----------------|----------------|
D| ---------2-----|3-----3-3-2-----|----------2-----|3-----3-3-2-----|
A| 0-----0-0---3-2-|------------3-2-|0-----0-0---3-2-|------------3-2-|
E| ---------------|----------------|----------------|----------------|

M| 1 & 2 & 3 & 4 & |1 & 2 & 3 & 4 & |1 & 2 & 3 & 4 & |1 & 2 & 3 & 4 & |

G| ---------------|----------------|----------------|----------------|
D| ---------2-----|----------2-----|2-----2-2-----2-|5-----5-8-5-8-5-|
A| 0-----0-0---3-2-|------------3-2-|----------3-3---|----------------|
E| ---------------|1-----1-1-------|----------------|----------------|

M| 1 & 2 & 3 & 4 & |1 & 2 & 3 & 4 & |1 & 2 & 3 & 4 & |1 & 2 & 3 & 4 & |

G| ---------------|
D| ---------------|
A| 0---------------|
E| ---------------|

M| 1 & 2 & 3 & 4 & |

  (02:28)

G| -----------14--|----5-8-5---5---|
D| ---14-17-14--14|--3-------3-----|
A| 12--------------|----------------|x3
E| ---------------|----------------|

M| 1 & 2 & 3 & 4 & |1 & 2 & 3 & 4 & |

G| ---4-7-4---4---|----------------|
D| 2---------2-----|------3-5-3-----|
A| ---------------|----3-------5---|
E| ---------------|--3-------------|

M| 1 & 2 & 3 & 4 & |1 & 2 & 3 & 4 & |


G| -----------14--|----5-8-5---5---|
D| ---14-17-14--14|--3-------3-----|
A| 12--------------|----------------|x3
E| ---------------|----------------|

M| 1 & 2 & 3 & 4 & |1 & 2 & 3 & 4 & |


G| ---4-7-4---4---|----------------|
D| 2---------2-----|------3-5-3-----|
A| ---------------|----3-------5-3-|
E| ---------------|--3-------------|

M| 1 & 2 & 3 & 4 & |1 & 2 & 3 & 4 & |


G| ---------------|----------------|
D| -------------2-|3-----3-3-2-----|
A| 0-----0-0-2-3---|------------3-2-|x3
E| ---------------|----------------|

M| 1 & 2 & 3 & 4 & |1 & 2 & 3 & 4 & |


G| ---------------|-------03---2-0-|
D| 2-----2-2-------|5-------0-3----3|
A| ----------3-5-5-|----------------|
E| ---------------|----------------|

M| 1 & 2 & 3 & 4 & |1 & 2 & 3 & 4 & |

G| ---------------|----------------|
D| -------------2-|3-----3-3-2-----|
A| 0-----0-0-2-3---|------------3-2-|x3
E| ---------------|----------------|

M| 1 & 2 & 3 & 4 & |1 & 2 & 3 & 4 & |

G| ---------------|----------------|
D| 2-----2-2-------|5-----5-8-5-8-5-|
A| ----------3-5-5-|----------------|
E| ---------------|----------------|

M| 1 & 2 & 3 & 4 & |1 & 2 & 3 & 4 & |

G| ---------------|
D| ---------------|
A| 0---------------|
E| ---------------|

M| 1 & 2 & 3 & 4 &

Almost there ...

Sign in to get your own page with links to favourite songs and more. You are just one click away...

Login with Facebook Login with Google