Log in

One click and you are in

Login with Facebook Login with Google

Why sign up and log in

Guitar Tabs Explorer
Duran Duran bass tabs for This lost weekend

Bass tabs

This Lost Weekend
Duran Duran
All You Need Is Now
Ward Records VQCD-10311/2 (Japan release)
2012

John Taylor on bass
4/4 timing
standard tuning, key G Major				pedals: none
Intro
G:|--------|--------|--------|7776----|--------|--------|--------|--------|
D:|5>-50>-0|2>-2----|--------|----7>--|5>-50>-0|2>-2----|--------|7>-77-9-|
A:|--------|----2>-2|3>-3----|--------|--------|----2>-2|3>-3----|--------|
E:|--------|--------|----3>-3|--------|--------|--------|----3>-3|--------|
  1 2 3 4 1 2 3 4 1 2 3 4 1 2 3 4 1 2 3 4 1 2 3 4 1 2 3 4 1 2 3 4

Rest of Song
G:|--------|--------|--------|------4-|--------|--------|--------|7776----|
D:|5>-50>-0|2>-2----|--------|7>-77---|5>-50>-0|2>-2----|--------|----7>--|
A:|--------|----2>-2|3>-3----|--------|--------|----2>-2|3>-3----|--------|
E:|--------|--------|----3>-3|--------|--------|--------|----3>-3|--------|
  1 2 3 4 1 2 3 4 1 2 3 4 1 2 3 4 1 2 3 4 1 2 3 4 1 2 3 4 1 2 3 4

G:|--------|--------|--------|7776----|--------|--------|--------|--------|
D:|5>-50>-0|2>-2----|--------|----7>--|5>-50>-0|2>-2----|--------|--------|
A:|--------|----2>-2|3>-3----|--------|--------|----2>-2|3>-3----|--------|
E:|--------|--------|----3>-3|--------|--------|--------|----3>-3|5>-55-5-|
  1 2 3 4 1 2 3 4 1 2 3 4 1 2 3 4 1 2 3 4 1 2 3 4 1 2 3 4 1 2 3 4

G:|--------|--------|--------|--------|--------|--------|--------|7776----|
D:|5>-50>-0|2>-2----|--------|--------|5>-50>-0|2>-2----|--------|----7>--|
A:|--------|----2>-2|3>-3----|--------|--------|----2>-2|3>-3----|--------|
E:|--------|--------|----3>-3|5>-55-5-|--------|--------|----3>-3|--------|
  1 2 3 4 1 2 3 4 1 2 3 4 1 2 3 4 1 2 3 4 1 2 3 4 1 2 3 4 1 2 3 4

G:|--------|--------|--------|--------|--------|--------|--------|--------|
D:|5>-50>-0|2>-2----|--------|7>-77-7-|5>-50>-0|2>-2----|--------|7>-77-7-|
A:|--------|----2>-2|3>-3----|--------|--------|----2>-2|3>-3----|--------|
E:|--------|--------|----3>-3|--------|--------|--------|----3>-3|--------|
  1 2 3 4 1 2 3 4 1 2 3 4 1 2 3 4 1 2 3 4 1 2 3 4 1 2 3 4 1 2 3 4

G:|--------|--------|--------|--------|--------|--------|--------|--------|
D:|5>-50>-0|2>-2----|--------|--------|5>-50>-0|2>-2----|--------|7>-77---|
A:|--------|----2>-2|3>-3----|--------|--------|----2>-2|3>-3----|------7-|
E:|--------|--------|----3>-3|5>-55-5-|--------|--------|----3>-3|--------|
  1 2 3 4 1 2 3 4 1 2 3 4 1 2 3 4 1 2 3 4 1 2 3 4 1 2 3 4 1 2 3 4

G:|--------|--------|--------|--------|--------|--------|--------|--------|
D:|5>-50>-0|2>-2----|--------|7>-77---|5>-50>-0|2>-2----|--------|--------|
A:|--------|----2>-2|3>-3----|--------|--------|----2>-2|3>-3----|--------|
E:|--------|--------|----3>-3|--------|--------|--------|----3>-3|5>-55-5-|
  1 2 3 4 1 2 3 4 1 2 3 4 1 2 3 4 1 2 3 4 1 2 3 4 1 2 3 4 1 2 3 4

G:|--------|--------|--------|------4-|--------|--------|--------|--------|
D:|5>-50>-0|2>-2----|--------|7>-77---|5>-50>-0|2>-2----|--------|--------|
A:|--------|----2>-2|3>-3----|--------|--------|----2>-2|3>-3----|--------|
E:|--------|--------|----3>-3|--------|--------|--------|----3>-3|5>-55-5-|
  1 2 3 4 1 2 3 4 1 2 3 4 1 2 3 4 1 2 3 4 1 2 3 4 1 2 3 4 1 2 3 4

G:|--------|--------|--------|--------|--------|--------|--------|--------|
D:|5>-50>-0|2>-2----|--------|7>-7--7-|5>-50>-0|2>-2----|--------|7>-77-7-|
A:|--------|----2>-2|3>-3----|----7---|--------|----2>-2|3>-3----|--------|
E:|--------|--------|----3>-3|--------|--------|--------|----3>-3|--------|
  1 2 3 4 1 2 3 4 1 2 3 4 1 2 3 4 1 2 3 4 1 2 3 4 1 2 3 4 1 2 3 4

G:|--------|--------|--------|--------|--------|--------|--------|--------|
D:|5>-50>-0|2>-2----|--------|7>-77-7-|5>-50>-0|2>-2----|--------|--------|
A:|--------|----2>-2|3>-3----|--------|--------|----2>-2|3>-3----|--------|
E:|--------|--------|----3>-3|--------|--------|--------|----3>-3|5>-55-5>|
  1 2 3 4 1 2 3 4 1 2 3 4 1 2 3 4 1 2 3 4 1 2 3 4 1 2 3 4 1 2 3 4


|| repeat between || as indicated	h hammer on		~ vibrato
/ slide up				p pull off
\ slide down				1. dotted note
> legato (let note ring)		11 fret one, twice
! full stop mute			11 fret eleven
R rest					x ghost note

Almost there ...

Sign in to get your own page with links to favourite songs and more. You are just one click away...

Login with Facebook Login with Google