Log in

One click and you are in

Login with Facebook Login with Google

Why sign up and log in

Guitar Tabs Explorer
Duran Duran bass tabs for The valley

Bass tabs

Submitted by Nihilist

Verses (with bass synth)
G |-----------------|----------30-------20-|
D |-----------------|5-555-5-5---3-3-333--5|
A |5-555-5/6-5------|----------------------|
E |-----------------|----------------------|
  (00:00-00:30)     (00:30-00:40)

G |-----------------|----------30-------20-|
D |-----------------|5-555-5-5---3-3-333--5|
A |5-555-5/6-5------|----------------------|
E |-----------------|----------------------|
  (00:40-00:55)     (00:55-01:05)

G |-----------------|----------30-------20-|
D |-----------------|5-555-5-5---3-3-333--5|
A |5-555-5/6-5------|----------------------|
E |-----------------|----------------------|
  (01:05-01:42)   (01:43-01:50)

G |-----------------|----------30-------20-|
D |-----------------|5-555-5-5---3-3-333--5|
A |5-555-5/6-5------|----------------------|
E |-----------------|----------------------|
  (01:50-01:58)   (01:58-02:07)

G |-----------------|----------30-------20-|
D |-----------------|5-555-5-5---3-3-333--5|
A |5-555-5/6-5------|----------------------|
E |-----------------|----------------------|
  (02:07-02:13)   (02:13-02:21)


Pre Chorus
G |-----------------|-----------------|-----------------|-----------------|
D |-----------------|-----------------|-----------------|-----------------|
A |-----------------|-----------------|-----------------|-----------------|
E |-0~--------------|-0~--------------|-0~--------------|-0~--------------|

Chorus

I
G |-----3-0-----|--2-0-------|-----3-0-----|--2-0-------|
D |5>-5----3----|3-----5>----|5>-5----3----|3-----5>----|
A |-------------|------------|-------------|------------|
E |-------------|------------|-------------|------------|

II
G |-----------------|-----------------|-----------------|
D |-----------------|-----------------|-----------------|
A |3/5---3/5--------|3/5---3/5--------|3/5---3/5--------|
E |----3-----3-0~---|----3-----3-0~---|----3-----3-0~---|

I
G |-----3-0-----|--2-0-------|-----3-0-----|--2-0-------|
D |5>-5----3----|3-----5>----|5>-5----3----|3-----5>----|
A |-------------|------------|-------------|------------|
E |-------------|------------|-------------|------------|

II
G |-----------------|-----------------|-----------------|
D |-----------------|-----------------|-----------------|
A |3/5---3/5--------|3/5---3/5--------|3/5---3/5--------|
E |----3-----3-0~---|----3-----3-0~---|----3-----3-0~---|


(Verses- synth bass)

G |----------30-------20-|-----------------|----------30-------20-|
D |5-555-5-5---3-3-333--5|-----------------|5-555-5-5---3-3-333--5|
A |----------------------|5-555-5/6-5------|----------------------|
E |----------------------|-----------------|----------------------|

G |-----------------|----------30-------20-|
D |-----------------|5-555-5-5---3-3-333--5|
A |5-555-5/6-5------|----------------------|
E |-----------------|----------------------|

G |-----------------|----------30-------20-|
D |-----------------|5-555-5-5---3-3-333--5|
A |5-555-5/6-5------|----------------------|
E |-----------------|----------------------|

(interlude 03:30 - 04:00)

G |-----------------|-----------------|-----------------|-----------------|
D |-----------------|-----------------|-----------------|-----------------|
A |-----------------|-----------------|-----------------|-----------------|
E |-0~--------------|-0~--------------|-0~--------------|-0~--------------|

G |-----------------|-----------------|-----------------|
D |-----------------|-----------------|-----------------|
A |3/5---3/5--------|3/5---3/5--------|3/5---3/5--------|
E |----3-----5-0~---|----3-----3-0~---|----3-----3-0~---|

04:00 - 04:10 NO BASS

(outro 04:10 - until the final)

G |----------30-------20-|-----------------|----------30-------20-|
D |5-555-5-5---3-3-333--5|-----------------|5-555-5-5---3-3-333--5|
A |----------------------|5-555-5/6-5------|----------------------|
E |----------------------|-----------------|----------------------|

G |----------30-------20-|-----------------|----------30-------20-|
D |5-555-5-5---3-3-333--5|-----------------|5-555-5-5---3-3-333--5|
A |----------------------|5-555-5/6-5------|----------------------|
E |----------------------|-----------------|----------------------|

G |----------30-------20-|-----------------|----------30-------20-|
D |5-555-5-5---3-3-333--5|-----------------|5-555-5-5---3-3-333--5|
A |----------------------|5-555-5/6-5------|----------------------|
E |----------------------|-----------------|----------------------|

Almost there ...

Sign in to get your own page with links to favourite songs and more. You are just one click away...

Login with Facebook Login with Google