Log in

One click and you are in

Login with Facebook Login with Google

Why sign up and log in

Guitar Tabs Explorer
Duran Duran bass tabs for The seventh stranger

The Seventh Stranger bass tab by Duran Duran

Duran Duran bass tabs for The seventh stranger

Bass tabs

VERSE

G |-----------------|-----------------|-----------------|-----------------|
D |-----------------|-----------------|-----------------|-----------------|
A |3----------------|-----------------|3----------------|---7-5--7-7------|
E |-----------------|0----------------|-----------------|0----------------|
G |-----------------|-----------------|-----------------|-----------------|
D |5----------------|3--5-3-5-2-3-----|-----------------|2----------------|
A |--5--------------|-------------5-5-|3----------------|-----------------|
E |-----------------|-----------------|-----------------|-----------------|


G |-----------------|---7-9-7--9-9----|-----------------|-----------------|
D |-----------------|-----------------|-----------------|3--5-3-5-2-3-----|
A |3----------------|7----------------|----5------------|-------------5-5-|
E |-----------------|-----------------|3----------------|-----------------|


G |-----------------|-----------------------|
D |-----------------|------------10-12-10-10|
A |-----5-----------|3-----10-12------------|
E |3----------------|-----------------------|


  CHORUS


G |-----------------|----5------------|----9------------|-------------------|
D |----3----3-------|-----------------|-----------------|-------------------|
A |-----------------|3-3-----3-3-5-3--|7-7----7-5-7-7---|-------------------|
E |1-1----1---1-----|-----------------|-----------------|5-5--5-5--55-5--5-5|


G |------------------|----7-------------|----9------------|-----------------|
D |----3-------------|------------------|-----------------|-----------------|
A |------------------|5-5------5>-------|7-7------7>------|-----3---3-------|
E |1-1----1>---------|------------------|-----------------|5-5----5----5-5--|

G |-----------------|-----------------|-----------------|-----------------|
D |3--3-6-----------|5--5-------------|---3-------------|-----------------|
A |-----------------|-----2-----------|5-5--------------|----3------------|
E |-----------------|-----------------|-----------------|5-5--------------|


G |-----------------|-----------------|12--11-9----------|-----------------|
D |3---3-6----------|5---5------------|---------12-10----|-----------------|
A |-----------------|------2----------|------------------|12---12----------|
E |-----------------|-----------------|------------------|-----------------|


 VERSE 2

G |-----------------|-----------------|-----------------|-----------------|
D |-----------------|-----------------|-----------------|-----------------|
A |3----------------|-----------------|3----------------|---7-5--7-7------|
E |-----------------|0----------------|-----------------|0----------------|


G |-----------------|-----------------|-----------------|-----------------|
D |5----------------|3--5-3-5-2-3-----|-----------------|2----------------|
A |--5--------------|-------------5-5-|3----------------|-----------------|
E |-----------------|-----------------|-----------------|-----------------|


G |-----------------|---7-9-7--9-9----|-----------------|-----------------|
D |-----------------|-----------------|-----------------|3--5-3-5-2-3-----|
A |3----------------|7----------------|----5------------|-------------5-5-|
E |-----------------|-----------------|3----------------|-----------------|


G |-----------------|-----------------------|
D |-----------------|------------10-12-10-10|
A |-----5-----------|3-----10-12------------|
E |3----------------|-----------------------|

 CHORUS


G |-----------------|----5------------|----9------------|-------------------|
D |----3----3-------|-----------------|-----------------|-------------------|
A |-----------------|3-3-----3-3-5-3--|7-7----7-5-7-7---|-------------------|
E |1-1----1---1-----|-----------------|-----------------|5-5--5-5--55-5--5-5|


G |------------------|----7-------------|----9------------|-----------------|
D |----3-------------|------------------|-----------------|-----------------|
A |------------------|5-5------5>-------|7-7------7>------|-----3---3-------|
E |1-1----1>---------|------------------|-----------------|5-5----5----5-5--|


G |-----------------|-----------------|-----------------|-----------------|
D |3--3-6-----------|5--5-------------|---3-------------|-----------------|
A |-----------------|-----2-----------|5-5--------------|----3------------|
E |-----------------|-----------------|-----------------|5-5--------------|


G |-----------------|-----------------|12--11-9----------|-----------------|
D |3---3-6----------|5---5------------|---------12-10----|-----------------|
A |-----------------|------2----------|------------------|12---12----------|
E |-----------------|-----------------|------------------|-----------------|

 VERSE 3


G |-----------------|-----------------|-----------------|-----------------|
D |-----------------|-----------------|-----------------|-----------------|
A |12---12----------|3--3--3-3--3-3---|--7-5--7-7-------|3--3--3-3--3--3--|
E |-----------------|-----------------|0----------------|-----------------|


G |-----------------|-----------------|-----------------|-----------------|
D |-----------------|-----------------|3--5--2-3--------|-----------------|
A |---7-5--7-7------|----5------------|----------5------|----5------------|
E |0----------------|3----------------|-----------------|3----------------|

 CHORUS


G |-----------------------|-----------------|----5-------------|----9------------|
D |------------10-12-10-10|-----3----3------|------------------|-----------------|
A |3--3--10-12------------|-----------------|3-3----3-3-5-3----|7-7---7-5-7-7----|
E |-----------------------|1--1----1---1----|------------------|-----------------|


G |-----------------|-----------------|----7------------|----9------------|
D |-----------------|----3------------|-----------------|-----------------|
A |-----------------|-----------------|5-5----5---------|7-7------7-------|
E |5-5-5-5-5-5--5---|1-1------1-------|-----------------|-----------------|


G |-----------------|-----2-----------|-----------------|-----------------|
D |-----------------|3--3-------------|5--5-------------|-----4-----------|
A |-----3---3-------|-----------------|-----2--2--------|5--5-------------|
E |5-5----5----5-5--|-----------------|-----------------|-----------------|


G |-----------------|------2----------|-----------------|-----------------|
D |-----------------|3---3------------|5--5-------------|-----4-----------|
A |-----3--3--------|-----------------|-----2--2--------|5--5-------------|
E |5--5-------------|-----------------|-----------------|-----------------|

G |-----------------|------2----------|-----------------|-----------------|
D |-----------------|3---3------------|5--5-------------|-----4-----------|
A |-----3--3--------|-----------------|-----2--2--------|5--5-------------|
E |5--5-------------|-----------------|-----------------|-----------------|

G |-----------------|------2----------|-----------------|-----------------|
D |-----------------|3---3------------|5--5-------------|-----4-----------|
A |-----3--3--------|-----------------|-----2--2--------|5--5-------------|
E |5--5-------------|-----------------|-----------------|-----------------|

G |-----------------|------2----------|-----------------|-----------------|
D |-----------------|3---3------------|5--5-------------|-----4-----------|
A |-----3--3--------|-----------------|-----2--2--------|5--5-------------|
E |5--5-------------|-----------------|-----------------|-----------------|


G |-----------------|-----------------|
D |-----------------|-----------------|
A |-----3---3-------|-----------------|
E |5--5-------------|-5---------------|

Almost there ...

Sign in to get your own page with links to favourite songs and more. You are just one click away...

Login with Facebook Login with Google