Log in

One click and you are in

Login with Facebook Login with Google

Why sign up and log in

Guitar Tabs Explorer
Duran Duran bass tabs for Tel aviv

Bass tabs

Intro
G|----------|--------------|----------|--------------|
D|------5---|-3-3-3--6---2-|------5---|-3-3-3------2-|
A|-0--3-----|--------------|-0--3-----|--------------|
E|----------|--------------|----------|--------4-----|

Verse
G|----------|--------------|----------|--------------|
D|------5---|-3-3-3--6---2-|------5---|-3-3-3------2-|
A|-0--3-----|--------------|-0--3-----|--------------|
E|----------|--------------|----------|--------4-----|

G|----------|--------------|----------|--------------|
D|------5---|-3-3-3--6---2-|------5---|-3-3-3--6---2-|
A|-0--3-----|--------------|-0--3-----|--------------|
E|----------|--------------|----------|--------------|


Pre-Chorus
G|-----------------------7h9-7---|
D|-----7---7h9-7---------------9-|
A|-8-8---8-------8--7--7---------| x2
E|-------------------------------|


Chorus
G|-------12-14-12----------12-14-12----|-------12-14-12-------------------------|
D|----14----------12----14----------12-|----14----------12-------12-14----12----|
A|-12----------------12----------------|-12----------------12-14-------14----14-|
E|-------------------------------------|----------------------------------------|


Intro
G|----------|--------------|----------|--------------|
D|------5---|-3-3-3--6---2-|------5---|-3-3-3------2-|
A|-0--3-----|--------------|-0--3-----|--------------|
E|----------|--------------|----------|--------4-----|


Verse
G|----------|--------------|----------|--------------|
D|------5---|-3-3-3--6---2-|------5---|-3-3-3------2-|
A|-0--3-----|--------------|-0--3-----|--------------|
E|----------|--------------|----------|--------4-----|

G|----------|--------------|----------|--------------|
D|------5---|-3-3-3--6---2-|------5---|-3-3-3--6---2-|
A|-0--3-----|--------------|-0--3-----|--------------|
E|----------|--------------|----------|--------------|


Pre-Chorus
G|-----------------------7h9-7---|
D|-----7---7h9-7---------------9-|
A|-8-8---8-------8--7--7---------| x2
E|-------------------------------|


Chorus
G|-------12-14-12----------12-14-12----|-------12-14-12-------------------------|
D|----14----------12----14----------12-|----14----------12-------12-14----12----|
A|-12----------------12----------------|-12----------------12-14-------14----14-|
E|-------------------------------------|----------------------------------------|

 G|-------|
2 D|-------|
4 A|-14----|
 E|-------|


Bridge
 G|---------------|---------------|---------------|---------------|
4 D|---------------|---------------|-3-33-33-------|-2-22-22-------|
4 A|---------4-5-6-|---------4-5-6-|---------4-5-6-|---------4-5-6-| x4
 E|-5-55-55-------|-3-33-33-------|---------------|---------------|

G|---------------|---------------|-----7h9-7-----|-----7h9-7-----|
D|-----7---7h9-7-|-----7---7h9-7-|-----------9-7-|-----------9-7-|  Double time
A|-8-8---8-------|-8-8---8-------|-7-7-----------|-7-7-----------|  TWO times
E|---------------|---------------|---------------|---------------|

G|-------12-14-12----------|-------12-14-12----------|
D|----14----------14----14-|----14----------14----14-|
A|-12----------------12----|-12----------------12----|
E|-------------------------|-------------------------|

G|-------12-14-12----------|-------12-14-12----------|
D|----14----------14----14-|----14----------14----14-|
A|-12----------------12----|-12----------------12----|
E|-------------------------|-------------------------|

G|-------12-14-12----------|-------12-14-12----------|
D|----14----------14----14-|----14----------14----14-|
A|-12----------------12----|-12----------------12----|
E|-------------------------|-------------------------|

G|-------------------------|---------|
D|----12-14----12-14----14-|---------|
A|-14-------14-------12----|-77-7-77-| x2
E|-------------------------|---------|

G|-------|
D|-------|
A|-------|
E|-----0-|


Outro
G|---------|---------|---------|---------|
D|---------|-5---5-5-|-3---3-3-|-2---2-2-|  A tempo
A|-0---0-0-|---------|---------|---------|
E|---------|---------|---------|---------|

G|-----5---5h7-5---------5---5h7-5-----|-10h12-10h12-10h12----------10h12-10h12-10h12----------|
D|-7-7---7-------7-7-7-7---7-------7-7-|-------------------------------------------------------|
A|-------------------------------------|-------------------10-10-10-------------------10-10-10-|
E|-------------------------------------|-------------------------------------------------------|

G|-----------8h10-10-10-10-----------8h10-10-10-10-|-9-7------9-7-----|
D|------8h10--------------------8h10---------------|-----9--------9---|
A|-8h10--------------------8h10--------------------|-------7--------7-| x2
E|-------------------------------------------------|------------------|

G|---------|---------|---------|---------|
D|---------|-5---5-5-|-3---3-3-|-2---2-2-|
A|-0---0-0-|---------|---------|---------| x2
E|---------|---------|---------|---------|


************************************

| h Hammer-on


************************************

Almost there ...

Sign in to get your own page with links to favourite songs and more. You are just one click away...

Login with Facebook Login with Google