Log in

One click and you are in

Login with Facebook Login with Google

Why sign up and log in

Guitar Tabs Explorer
Duran Duran bass tabs for Taste the summer

Bass tabs

Tabbed by Hugorj

verses and chorus
G |-----------|-----------|-----------|-----------|-----------|-----------|-----------|-------------|
D |-----------|-----------|-----------|-----------|-----------|-----------|-----------|-----57/12\9-|
A |-----------|-----------|5-550-3535-|7-770------|-----------|-----------|5-550-3535-|7-77---------|
E |5-550-3530-|5-550-3530-|-----------|------3530-|5-550-3530-|5-550-3530-|-----------|-------------|

G |-----------|-----------|-----------|-----------|-----------|-----------|-----------|-------------|
D |-----------|-----------|-----------|-----------|-----------|-----------|-----------|-----575-----|
A |-----------|-----------|5-550-3535-|7-770------|-----------|-----------|5-550-3535-|7-77----7----|
E |5-550-3530-|5-550-3530-|-----------|------3530-|5-550-3530-|5-550-3530-|-----------|-------------|

G |-----------|-----------|-----------|-----------|-----------|-----------|-----------|-------------|
D |-----------|-----------|-----------|-----------|-----------|-----------|-----------|-----575-----|
A |-----------|-----------|5-550-3535-|7-770------|-----------|-----------|5-550-3535-|7-77----7----|
E |5-550-3530-|5-550-3530-|-----------|------3530-|5-550-3530-|5-550-3530-|-----------|-------------|

G |-----------|-----------|-----------|-----------|-----------|-----------|-----------|-------------|
D |-----------|-----------|-----------|-----------|-----------|-----------|-----------|-----57/12\9-|
A |-----------|-----------|5-550-3535-|7-770------|-----------|-----------|5-550-3535-|7-77---------|
E |5-550-3530-|5-550-3530-|-----------|------3530-|5-550-3530-|5-550-3530-|-----------|-------------|

G |-----------|-----------|-----------|-----------|-----------|-----------|-----------|-------------|
D |-----------|-----------|-----------|-----------|-----------|-----------|-----------|-----575-----|
A |-----------|-----------|5-550-3535-|7-770------|-----------|-----------|5-550-3535-|7-77----7----|
E |5-550-3530-|5-550-3530-|-----------|------3530-|5-550-3530-|5-550-3530-|-----------|-------------|

G |-----------|-----------|-----------|-----------|-----------|-----------|-----------|-------------|
D |-----------|-----------|-----------|-----------|-----------|-----------|-----------|-----575-----|
A |-----------|-----------|5-550-3535-|7-770------|-----------|-----------|5-550-3535-|7-77----7----|
E |5-550-3530-|5-550-3530-|-----------|------3530-|5-550-3530-|5-550-3530-|-----------|-------------|

G |-----------|-----------|-----------|-----------|-----------|-----------|-----------|-------------|
D |-----------|-----------|-----------|-----------|-----------|-----------|-----------|-----575-----|
A |-----------|-----------|5-550-3535-|7-770------|-----------|-----------|5-550-3535-|7-77----7----|
E |5-550-3530-|5-550-3530-|-----------|------3530-|5-550-3530-|5-550-3530-|-----------|-------------|

interlude
G |-------------------|------|---------|------|---------------|
D |-------------------|57-5--|---------|57-5--|---------57-5--|
A |-------------------|----7-|---------|----7-|5-5--7-7-----7-|
E |5-5--5-5--5-5--5-5-|------|5-5--5-5-|------|---------------|

G |-------------------|-------------------|----------------------------|
D |-------------------|-------------------|----------------------------|
A |----------5-5------|-------------5-5-7-|----------------------------|
E |5-5--5-5------0-0~-|5-5-030-5-5-------0|3530-00-3530-00-3530-00-3530|

Final/outro
G |-----------|-----------|-----------|-----------|-----------|-----------|-----------|-------------|
D |-----------|-----------|-----------|-----------|-----------|-----------|-----------|-----575-----|
A |-----------|-----------|5-550-3535-|7-770------|-----------|-----------|5-550-3535-|7-77----7----|
E |5-550-3530-|5-550-3530-|-----------|------3530-|5-550-3530-|5-550-3530-|-----------|-------------|

G |-----------|-----------|-----------|-----------|-----------|-----------|-----------|------99-----|
D |-----------|-----------|-----------|-----------|-----------|-----------|-----------|-------------|
A |-----------|-----------|5-550-3535-|7-770------|-----------|-----------|5-550-3535-|7-70-7-------|
E |5-550-3530-|5-550-3530-|-----------|------3530-|5-550-3530-|5-550-3530-|-----------|-------------|

G |-----------|-----------|-----------|----------------|
D |-----------|-----------|-----------|--------5---4---|
A |-----------|-----------|5-550-3535-|7-770-----------|
E |5-550-3530-|5-550-3530-|-----------|------3---2---0-|

End

Almost there ...

Sign in to get your own page with links to favourite songs and more. You are just one click away...

Login with Facebook Login with Google