Log in

One click and you are in

Login with Facebook Login with Google

Why sign up and log in

Guitar Tabs Explorer
Duran Duran bass tabs for Sunset garage

Bass tabs with lyrics

Sunset Garage
Duran Duran
Paper Gods
Warner Bros. Records 550113-2
2015

John Taylor on bass
4/4 timing
standard tuning, key A minor			pedals: synth
Intro (rest during car sound, keyboards, drums)
G:||----------------|----------------|----------------||----------------|
D:||----------------|----------------|----------------||----------------|
A:||-------R--------|-------R--------|-------R--------||-------R-------5|
E:||----------------|----------------|----------------||----------------|
  1 & 2 & 3 & 4 & 1 & 2 & 3 & 4 & 1 & 2 & 3 & 4 &  1 & 2 & 3 & 4 &

G:|-5~-------------|-577554-54------|-5~-------------|-5779910-97-9-----|
D:|7---7\---------5|7----------57>-5|7---7\---------5|7------------10>-5|
A:|----------------|----------------|----------------|------------------|
E:|----------------|----------------|----------------|------------------|
  1 & 2 & 3 & 4 & 1 & 2 & 3 & 4 & 1 & 2 & 3 & 4 & 1 & 2 & 3 & 4 &


Verse 1
G:|-5~-------------|-577554-54------|-5~-------------|-5779910-97-9-----|
D:|7---7\---------5|7----------57>-5|7---7\---------5|7------------10>-5|
A:|----------------|----------------|----------------|------------------|
E:|----------------|----------------|----------------|------------------|
  1 & 2 & 3 & 4 & 1 & 2 & 3 & 4 & 1 & 2 & 3 & 4 & 1 & 2 & 3 & 4 &

G:|-5~-------------|-577554-54------|-5~-------------|-5779910-97-|
D:|7---7\---------5|7----------57>-5|7---7\---------5|7-----------|
A:|----------------|----------------|----------------|------------|
E:|----------------|----------------|----------------|------------|
  1 & 2 & 3 & 4 & 1 & 2 & 3 & 4 & 1 & 2 & 3 & 4 & 1 & 2 & 3 &

Chorus
G:|5-5----45>7-----|--------775-779-|5-5----45>7-----|--------775-779-|
D:|-----57----5--57|8-8\-----------8|-----57----5--57|8-8\-----------8|
A:|----------------|----------------|----------------|----------------|
E:|----------------|----------------|----------------|----------------|
  1 & 2 & 3 & 4 & 1 & 2 & 3 & 4 & 1 & 2 & 3 & 4 & 1 & 2 & 3 & 4 &

G:|5-5----45>7-----|--------775-779-|5-5----45>7-----|----------------|
D:|-----57----5--57|8-8\-----------8|-----57----5--57|8--78--788--8-8-|
A:|----------------|----------------|----------------|----------------|
E:|----------------|----------------|----------------|----------------|
  1 & 2 & 3 & 4 & 1 & 2 & 3 & 4 & 1 & 2 & 3 & 4 & 1 & 2 & 3 & 4 &

Fill
G:|------|-5~-------------|-5779910-97-9-----|
D:|--7\-5|7---7\---------5|7------------10>-5|
A:|------|----------------|------------------|
E:|------|----------------|------------------|
  & 1 & 1 & 2 & 3 & 4 & 1 & 2 & 3 & 4 &


Verse 2
G:|-5~-------------|-577554-54------|-5~-------------|-5779910-97-9-----|
D:|7---7\---------5|7----------57>-5|7---7\---------5|7------------10>-5|
A:|----------------|----------------|----------------|------------------|
E:|----------------|----------------|----------------|------------------|
  1 & 2 & 3 & 4 & 1 & 2 & 3 & 4 & 1 & 2 & 3 & 4 & 1 & 2 & 3 & 4 &

G:|-5~-------------|-577554-54------|-5~-------------|-5779910-97-|
D:|7---7\---------5|7----------57>-5|7---7\---------5|7-----------|
A:|----------------|----------------|----------------|------------|
E:|----------------|----------------|----------------|------------|
  1 & 2 & 3 & 4 & 1 & 2 & 3 & 4 & 1 & 2 & 3 & 4 & 1 & 2 & 3 &


Chorus Reprise
G:|5-5----45>7-----|--------775-779-|5-5----45>7-----|--------775-779-|
D:|-----57----5--57|8-8\-----------8|-----57----5--57|8-8\-----------8|
A:|----------------|----------------|----------------|----------------|
E:|----------------|----------------|----------------|----------------|
  1 & 2 & 3 & 4 & 1 & 2 & 3 & 4 & 1 & 2 & 3 & 4 & 1 & 2 & 3 & 4 &

G:|5-5----45>7-----|--------775-779-|5-5----45>7-----|--------775-779-|
D:|-----57----5--57|8-8\-----------8|-----57----5--57|8-8\-----------8|
A:|----------------|----------------|----------------|----------------|
E:|----------------|----------------|----------------|----------------|
  1 & 2 & 3 & 4 & 1 & 2 & 3 & 4 & 1 & 2 & 3 & 4 & 1 & 2 & 3 & 4 &

G:|5-5----45>7-----|----------------|
D:|-----57----5--57|8--88--88--R----|
A:|----------------|----------------|
E:|----------------|----------------|
  1 & 2 & 3 & 4 & 1 & 2 & 3 & 4 &


Bridge
G:|---77--9-7-5----|---55-----------|---77--9-7-5-----|---44--45--54--4|
D:|-------------7\-|----------------|-------------77\-|----------------|
A:|5---------------|3------30--033--|5----------------|2---------------|
E:|----------------|----------------|-----------------|----------------|
  1 & 2 & 3 & 4 & 1 & 2 & 3 & 4 & 1 & 2 & 3 & 4 &  1 & 2 & 3 & 4 &


Verse 3
G:|---77--9-7-5----|---55-5---------|---77--9-7-5-----|----------------|
D:|-------------7\-|-------53--33-4-|-------------7-5\|----------------|
A:|5---------------|3---------------|5----------------|----------------|
E:|----------------|----------------|-----------------|3--33--33333--34|
  1 & 2 & 3 & 4 & 1 & 2 & 3 & 4 & 1 & 2 & 3 & 4 &  1 & 2 & 3 & 4 &

G:|---77--9-7-5----|---55--5--------|---77--9-7-5----|----------------|
D:|-------------7\-|----------------|-------------7\-|----------------|
A:|5---------------|3-------3--33-4-|5---------------|----------------|
E:|----------------|----------------|----------------|3--33--33333--34|
  1 & 2 & 3 & 4 & 1 & 2 & 3 & 4 & 1 & 2 & 3 & 4 & 1 & 2 & 3 & 4 &

G:|----------------|------|
D:|----------------|757--5|
A:|-------R--------|------|
E:|----------------|------|
  1 & 2 & 3 & 4 & 1 & 2


Outro                x3
G:||-5~-------------|-577554-54------|-5~-------------|-5779910-97-9-----||
D:||7---7\---------5|7----------57>-5|7---7\---------5|7------------10>-5||
A:||----------------|----------------|----------------|------------------||
E:||----------------|----------------|----------------|------------------||
  1 & 2 & 3 & 4 & 1 & 2 & 3 & 4 & 1 & 2 & 3 & 4 & 1 & 2 & 3 & 4 &


|| repeat between || as indicated	h hammer on		~ vibrato
/ slide up				p pull off
\ slide down				1. dotted note
> legato (let note ring)		11 fret one, twice
! staccato (full stop mute)		11 fret eleven
R rest					x ghost note

Almost there ...

Sign in to get your own page with links to favourite songs and more. You are just one click away...

Login with Facebook Login with Google