Log in

One click and you are in

Login with Facebook Login with Google

Why sign up and log in

Guitar Tabs Explorer
Duran Duran bass tabs for Starting to remember

Starting To Remember bass tab by Duran Duran

Duran Duran bass tabs for Starting to remember

Bass tabs

Starting To Remember
Duran Duran
Pop Trash
Hollywood Records HR-62266-2
2000

Warren Cuccurullo on bass
? & 4/4 timing, slow tempo
standard tuning, key G minor?
pedals: none
Intro
G:|------------------------------------------------------------|
D:|--------------------------53--------------------------------|
A:|3-3-3-----------3-3-3-------5-3-0-0-0-8>-8>-------7>--------|
E:|------3>--------------3>--------------------8>-8>-----------|

G:|--------------------------|
D:|--------------------------|
A:|------7>----/10\-/12\-----|
E:|8-8-8----------------8-8-8|


Verse "How to begin..."
G:|---------------------------------------------------------------------------|
D:|--------------------53--------------------------97-------------------------|
A:|----------3-3-3-------5-3-0-0-0-8>----------7>-----9-7------7>----/10\-/12\|
E:|3>--------------3>--------------------8>--------------8-8-8----------------|

G:|------------------------------------------------------------------------------|
D:|--------------------------53--------------------------------------------------|
A:|----------------3-3-3-------5-3-0-0-0-8>----------7>--------------7>----------|
E:|8-8-8-3>--------------3>--------------------8>--------------8-8-8-------------|

Chorus
G:|------------------------------------------------8>--7>----------------------|
D:|------------10>-------10-----------6>---10>-------------8>------------------|
A:|8>-----------------10----10-8>------------------------------------5>--------|
E:|----------------------------------------------------------------------------|


G:|-----------------------|
D:|-----------------------|
A:|----7>-----12109\------|
E:|8>---------------8-8-8-|


Verse
G:|----------------------------------------------------------------------|
D:|--------------------53--------------------------97--------------------|
A:|----------3-3-3-------5-3-0-0-0-8>----------7>-----9-7------7>--------|
E:|3>--------------3>--------------------8>--------------8-8-8-----------|

G:|------------------------------------------------------------------------------|
D:|--------------------------53--------------------------------------------------|
A:|----------------3-3-3-------5-3-0-0-0-8>----------7>----/10\-/12\------7>-----|
E:|8-8-8-3>--------------3>--------------------8>-------------------8-8-8--------|


Chorus
G:|------------------------------------------------8>--7>----------------------|
D:|------------10>-------10-----------6>---10>-------------8>------------------|
A:|8>-----------------10----10-8>------------------------------------5>--------|
E:|----------------------------------------------------------------------------|


G:|------------------------------------|
D:|------------------------------------|
A:|----7>-----12109\-------------------|
E:|8>---------------8-8-8-3>-----------|


|| repeat between || as indicated	h hammer on		~ vibrato
/ slide up				p pull off		^ triplet
\ slide down				1. dotted note
> legato (let note ring)		11 fret one, twice
! full stop mute			11 fret eleven
R rest					x ghost note

Almost there ...

Sign in to get your own page with links to favourite songs and more. You are just one click away...

Login with Facebook Login with Google