Log in

One click and you are in

Login with Facebook Login with Google

Why sign up and log in

Guitar Tabs Explorer
Duran Duran bass tabs for Sound of thunder

Bass tabs

Duran Duran Sound Of Thunder Bass Tab

G|----------------|----------------|----------------|----------------|
D|----------------|----------------|----------------|----------12-12/|
A|----------------|----------------|----------------|----------------|
E|----------------|----------------|----------------|----------------|

M|1 & 2 & 3 & 4 & |1 & 2 & 3 & 4 & |1 & 2 & 3 & 4 & |1 & 2 & 3 & 4 & |

G|----------------|------------3-0-|----------------|----------------|
D|----------------|5---5---5--0----|------------4-5-|----------4-----|
A|------------2-3-|----------------|2---2--x4-5-----|5---5---5---5-4-|
E|0---0--32-3-----|----------------|----------------|----------------|

M|1 & 2 & 3 & 4 & |1 & 2 & 3 & 4 & |1 & 2 & 3 & 4 & |1 & 2 & 3 & 4 & |

G|----------------|----------3-3-0-|----------------|----------------|
D|----------------|5---5---5--0----|------------4-5-|------------4-7-|
A|------------2-3/|----------------|2---2---4-5-----|--5-5--x5-5-----|
E|0---0--32-3-----|----------------|----------------|----------------|

M|1 & 2 & 3 & 4 & |1 & 2 & 3 & 4 & |1 & 2 & 3 & 4 & |1 & 2 & 3 & 4 & |

G|----------------|------------3-0-|----------------|----------------|
D|----------------|5---5---5--0----|------------4-5-|----------4-----|
A|------------2-3-|----------------|2---2--x4-5-----|5---5---5---5-4-|
E|0---0--32-3-----|----------------|----------------|----------------|

M|1 & 2 & 3 & 4 & |1 & 2 & 3 & 4 & |1 & 2 & 3 & 4 & |1 & 2 & 3 & 4 & |

G|----------------|----------3-3-0-|----------------|----------------|
D|----------------|5---5---5--0----|------------4-5-|------------4-6-|
A|------------2-3/|----------------|2---2---4-5-----|5-5-5---5-5-----|
E|0---0--32-3-----|----------------|----------------|----------------|

M|1 & 2 & 3 & 4 & |1 & 2 & 3 & 4 & |1 & 2 & 3 & 4 & |1 & 2 & 3 & 4 & |


G|----5-----------|----------------|----5-----------|----------------|
D|----------------|----------------|----------------|----------------|
A|3-3-------------|1-1-------------|3-3-------------|1-1----x----1-2-|
E|----------------|--------1-1-----|----------------|--------3-3-----|

M|1 & 2 & 3 & 4 & |1 & 2 & 3 & 4 & |1 & 2 & 3 & 4 & |1 & 2 & 3 & 4 & |

G|----5-----------|----------------|----5-----------|----------------|
D|----------------|--------3-3-----|----------------|-------0-555554/|
A|3-3-------------|1-1-------------|3-3-------------|1-1-------------|
E|----------------|----------------|----------------|----------------|

M|1 & 2 & 3 & 4 & |1 & 2 & 3 & 4 & |1 & 2 & 3 & 4 & |1 & 2 & 3 & 4 & |

G|----------------|------------3-0-|----------------|----------------|
D|----------------|5---5---5--0----|------------4-5-|----------4-----|
A|------------2-3-|----------------|2---2---4-5-----|5-5-5---5---5-4-|
E|0---0--32-3-----|----------------|----------------|----------------|

M|1 & 2 & 3 & 4 & |1 & 2 & 3 & 4 & |1 & 2 & 3 & 4 & |1 & 2 & 3 & 4 & |

G|----------------|----------3-3-0-|----------------|----------------|
D|----------------|5-5-5---5--0----|------------4-5-|----------4-----|
A|------------2-3/|----------------|2---2--x4-5-----|--5-5--x5---5-4-|
E|0---0--x2-3-----|----------------|----------------|----------------|

M|1 & 2 & 3 & 4 & |1 & 2 & 3 & 4 & |1 & 2 & 3 & 4 & |1 & 2 & 3 & 4 & |

G|----------------|----------3-3-0-|----------------|----------------|
D|----------------|5-5-5---5--0----|------------4-5-|------------4-7-|
A|------------2-3/|----------------|2---2---4-5-----|5-5-5---5-5-----|
E|0---0--x2-3-----|----------------|----------------|----------------|

M|1 & 2 & 3 & 4 & |1 & 2 & 3 & 4 & |1 & 2 & 3 & 4 & |1 & 2 & 3 & 4 & |

G|----------------|------------3-0-|----------------|----------------|
D|----------------|5-5-5---5--0----|------------4-5-|----------------|
A|------------2-3-|----------------|2---2---4-5-----|5-5-5---5-5-4-5-|
E|0---0--32-3-----|----------------|----------------|----------------|

M|1 & 2 & 3 & 4 & |1 & 2 & 3 & 4 & |1 & 2 & 3 & 4 & |1 & 2 & 3 & 4 & |


G|----5-----------|----------------|----5-----------|----------------|
D|----------------|----------------|----------------|----------------|
A|3-3-------------|1-1-------------|3-3-------------|1-1----x----1-2-|
E|----------------|--------1-1-----|----------------|--------3-3-----|

M|1 & 2 & 3 & 4 & |1 & 2 & 3 & 4 & |1 & 2 & 3 & 4 & |1 & 2 & 3 & 4 & |

G|----5-----------|----------------|----5-----------|-------------------|
D|----------------|--------3-3-----|----------------|-------0-55/555/57/|
A|3-3-------------|1-1-------------|3-3-------------|1-1----------------|
E|----------------|----------------|----------------|-------------------|

M|1 & 2 & 3 & 4 & |1 & 2 & 3 & 4 & |1 & 2 & 3 & 4 & |1 & 2 & 3 & 4 & |



G|--------4-4--4--|2-2--2----------|--------4-4--4--|2-2--2----------|
D|2-2--2----------|--------3-3--3--|2-2--2----------|--------3-3--3--|
A|----------------|----------------|----------------|----------------|
E|----------------|----------------|----------------|----------------|

M|1 & 2 & 3 & 4 & |1 & 2 & 3 & 4 & |1 & 2 & 3 & 4 & |1 & 2 & 3 & 4 & |

G|--------4-4--4--|2-2--2----------|--------4-4--4--|2-2--2----------|
D|2-2--2----------|--------3-3-5-3-|2-2--2----------|--------3-3--3--|
A|----------------|----------------|----------------|----------------|
E|----------------|----------------|----------------|----------------|

M|1 & 2 & 3 & 4 & |1 & 2 & 3 & 4 & |1 & 2 & 3 & 4 & |1 & 2 & 3 & 4 & |

G|--------4-4--4--|2-2--2----------|--------4-4--4--|2-2--2----------|
D|2-2--2----------|--------3-3-5-3-|2-2--2----------|--------3-3--5--|
A|----------------|----------------|----------------|----------------|
E|----------------|----------------|----------------|----------------|

M|1 & 2 & 3 & 4 & |1 & 2 & 3 & 4 & |1 & 2 & 3 & 4 & |1 & 2 & 3 & 4 & |


G|----------------|----------------|---6--6---6---6-|--9---9---9---9-|
D|--4---4---4---4-|--7---7---7---7-|----------------|----------------|
A|----------------|----------------|4---4---4---4---|7---7---7---7---|
E|2---2---2---2---|5---5---5---5---|----------------|----------------|

M|1 & 2 & 3 & 4 & |1 & 2 & 3 & 4 & |1 & 2 & 3 & 4 & |1 & 2 & 3 & 4 & |

G|----------------|----------------|---6--6---6---6-|--9---9--10--10-|
D|--4---4---4---4-|--7---7---7---7-|----------------|----------------|
A|----------------|----------------|4---4---4---4---|7---7---8---8---|
E|2---2---2---2---|5---5---5---5---|----------------|----------------|

M|1 & 2 & 3 & 4 & |1 & 2 & 3 & 4 & |1 & 2 & 3 & 4 & |1 & 2 & 3 & 4 & |

G|-11--11---11----|--14--14--14--14|--6----6---6--6-|--9---9---9---9-|
D|----------------|----------------|----------------|----------------|
A|9---9---9---9---|12--12--12--12--|4---4---4---4---|7---7---7----7--|x4
E|----------------|----------------|----------------|----------------|

M|1 & 2 & 3 & 4 & |1 & 2 & 3 & 4 & |1 & 2 & 3 & 4 & |1 & 2 & 3 & 4 & |

G|----------------|----------------|----------------|----------------|
D|----------------|----------1-----|----------------|--------3---3---|
A|----------------|2-2-2-2-2---1-2-|4-4-4-4-4-4-4-4-|4-4-4-4---4---4-|
E|2-2-4-4-5-5-6-6-|----------------|----------------|----------------|

M|1 & 2 & 3 & 4 & |1 & 2 & 3 & 4 & |1 & 2 & 3 & 4 & |1 & 2 & 3 & 4 & |

G|----------------|----------------|----------------|----------------|
D|----------------|----------1-----|----------------|----------3-----|
A|----------------|2-2-2-2-2---1-2-|4-4-4-4-4-4-4-4-|4-4-4-4-4---4-3-|x2
E|2-2-4-4-5-5-6-6-|----------------|----------------|----------------|

M|1 & 2 & 3 & 4 & |1 & 2 & 3 & 4 & |1 & 2 & 3 & 4 & |1 & 2 & 3 & 4 & |

G|----------------|----------------|----------------|----------------|
D|----------------|----------1-----|----------------|--------2-2-3-3-|
A|----------------|2-2-2-2-2---1-2-|4-4-4-4-4-4-4-4-|4-4-4-4---------|
E|2-2-4-4-5-5-6-6-|----------------|----------------|----------------|

M|1 & 2 & 3 & 4 & |1 & 2 & 3 & 4 & |1 & 2 & 3 & 4 & |1 & 2 & 3 & 4 & |

G|----------------|4-4-4-4-4-4-4---|----------------|----------------|
D|4-4-6-6-7-7-8-8-|----------------|----2-2-4-4-6-6-|----2-2-4-4-5-0-|
A|----------------|--------------56|4-4-------------|4-4-------------|
E|----------------|----------------|----------------|----------------|

M|1 & 2 & 3 & 4 & |1 & 2 & 3 & 4 & |1 & 2 & 3 & 4 & |1 & 2 & 3 & 4 & |

G|----------------|----------------|----------------|----------------|
D|----------------|----------1-----|----3-----3-----|5-----6-----7---|
A|----------------|2-2-2-2-2---1-2-|4-4---4-4---4-4-|--4-4---4-4-----|x2
E|2-2-4-4-5-5-6-6-|----------------|----------------|--------------0-|

M|1 & 2 & 3 & 4 & |1 & 2 & 3 & 4 & |1 & 2 & 3 & 4 & |1 & 2 & 3 & 4 & |

Almost there ...

Sign in to get your own page with links to favourite songs and more. You are just one click away...

Login with Facebook Login with Google