Log in

One click and you are in

Login with Facebook Login with Google

Why sign up and log in

Guitar Tabs Explorer
Duran Duran bass tabs for Some like it hot

Bass tabs

Powerstation cover


intro
G |77-5-5-----------|77-5-5-----------|77-5-5-----------|77-5-5-----------|
D |-----------------|-----------------|-----------------|-----------------|
A |-------555-------|-------555-------|-------555-------|-------555-------|
E |-----------------|-----------------|-----------------|-----------------|

G |77-5-5-----------|77-5-5-----------|77-5-5-----------|77-5-5-----------|
D |-----------------|-----------------|-----------------|-----------------|
A |-------555-------|-------555-------|-------555-------|-------555-------|
E |-----------------|-----------------|-----------------|-----------------|

verses
G |------------------------|------------------------|------------------------|----------------------|
D |------------------5>-5>-|------------------5>-5>-|------------------5>-5>-|------------------555-|
A |--5/7---5/7---5/7-------|--5/7---5/7---5/7-------|--5/7---5/7---5/7-------|--5/7---5/7---5/7-----|
E |0-----0-----0-----------|0-----0-----0-----------|0-----0-----0-----------|0-----0-----0---------|

G |------------------------|----------------------|------------------------|----------------------|
D |------------------5>-5>-|------------------555-|------------------5>-5>-|------------------555-|
A |--5/7---5/7---5/7-------|--5/7---5/7---5/7-----|--5/7---5/7---5/7-------|--5/7---5/7---5/7-----|
E |0-----0-----0-----------|0-----0-----0---------|0-----0-----0-----------|0-----0-----0---------|


pre chorus
G |----5>-|----7>-|-------------|----5>-|----7>-|-------------|
D |-------|-------|-------------|-------|-------|-------------|
A |333----|555----|--------12\7-|333----|555----|--------12\7-|
E |-------|-------|0-0-0-0------|-------|-------|0-0-0-0------|


chorus
G |-------------------|-------------------|-------------------|-------------------|
D |-------------------|-------------------|-------------------|-------------------|
A |--7/9-77--033-0555-|--7/9-77--033-0555-|--7/9-77--033-0555-|--7/9-77--033-0555-|
E |0------------------|0------------------|0------------------|0------------------|

G |-------------------|-------------------|-------------------|-------------------|
D |-------------------|-------------------|-------------------|-------------------|
A |--7/9-77--033-0555-|--7/9-77--033-0555-|--7/9-77--033-0555-|--7/9-77--033-0555-|
E |0------------------|0------------------|0------------------|0------------------|

verses
G |------------------------|----------------------|------------------------|----------------------|
D |------------------5>-5>-|------------------555-|------------------5>-5>-|------------------555-|
A |--5/7---5/7---5/7-------|--5/7---5/7---5/7-----|--5/7---5/7---5/7-------|--5/7---5/7---5/7-----|
E |0-----0-----0-----------|0-----0-----0---------|0-----0-----0-----------|0-----0-----0---------|

G |------------------------|----------------------|------------------------|----------------------|
D |------------------5>-5>-|------------------555-|------------------5>-5>-|------------------555-|
A |--5/7---5/7---5/7-------|--5/7---5/7---5/7-----|--5/7---5/7---5/7-------|--5/7---5/7---5/7-----|
E |0-----0-----0-----------|0-----0-----0---------|0-----0-----0-----------|0-----0-----0---------|

pre chorus
G |----5>-|----7>-|-------------|----5>-|----7>-|-------------|
D |-------|-------|-------------|-------|-------|-------------|
A |333----|555----|--------12\7-|333----|555----|--------12\7-|
E |-------|-------|0-0-0-0------|-------|-------|0-0-0-0------|

 chorus
G |-------------------|-------------------|-------------------|-----------------7---8|
D |-------------------|-------------------|-------------------|----------------------|
A |--7/9-77--033-0555-|--7/9-77--033-0555-|--7/9-77--033-0555-|--7/9-77--033--5---6--|
E |0------------------|0------------------|0------------------|0---------------------|

G |-------------------|-------------------|-------------------|-------------------|
D |-------------------|-------------------|-------------------|-------------------|
A |--7/9-77--033-0555-|--7/9-77--033-0555-|--7/9-77--033-0555-|--7/9-77--033-0555-|
E |0------------------|0------------------|0------------------|0------------------|

verses
G |------------------------|----------------------|------------------------|----------------------|
D |------------------5>-5>-|------------------555-|------------------5>-5>-|------------------555-|
A |--5/7---5/7---5/7-------|--5/7---5/7---5/7-----|--5/7---5/7---5/7-------|--5/7---5/7---5/7-----|
E |0-----0-----0-----------|0-----0-----0---------|0-----0-----0-----------|0-----0-----0---------|

G |------------------------|----------------------|------------------------|----------------------|
D |------------------5>-5>-|------------------555-|------------------5>-5>-|------------------555-|
A |--5/7---5/7---5/7-------|--5/7---5/7---5/7-----|--5/7---5/7---5/7-------|--5/7---5/7---5/7-----|
E |0-----0-----0-----------|0-----0-----0---------|0-----0-----0-----------|0-----0-----0---------|


pre chorus
G |----5>-|----7>-|-------------|----5>-|----7>-|-------------|
D |-------|-------|-------------|-------|-------|-------------|
A |333----|555----|--------12\7-|333----|555----|--------12\7-|
E |-------|-------|0-0-0-0------|-------|-------|0-0-0-0------|

 final/outro
G |-------------------|-------------------|-------------------|-----------------7---8|
D |-------------------|-------------------|-------------------|----------------------|
A |--7/9-77--033-0555-|--7/9-77--033-0555-|--7/9-77--033-0555-|--7/9-77--033--5---6--|
E |0------------------|0------------------|0------------------|0---------------------|

G |-------------------|-------------------|-------------------|----------------------|
D |-------------------|-------------------|-------------------|----------------------|
A |77-7/9-77--022-035-|77-7/9-77--022-035-|77-7/9-77--022-035-|77-7/9-77--022-035----|
E |-------------------|0------------------|0------------------|0---------------------|


End

Almost there ...

Sign in to get your own page with links to favourite songs and more. You are just one click away...

Login with Facebook Login with Google