Log in

One click and you are in

Login with Facebook Login with Google

Why sign up and log in

Guitar Tabs Explorer
Duran Duran bass tabs for Shadows on your side

Shadows On Your Side bass tab by Duran Duran

Duran Duran bass tabs for Shadows on your side

Bass tabs

John Taylor on bass
4/4 timing
standard tuning, key D minor ()			pedals: none

based on the bass cover by zumazmusic on Youtube
Intro
G:|-----------------|
D:|-----------------|
A:|----R------------|
E:|------------12\--|
  1 & 2 & 3 & 4 &
                   x2
G:||----------------|----------------|----------------|----------------||
D:||----------------|----------------|----------------|----------------||
A:||--5-7---5-7---5-|--5-7---5-7---5\|--2-5---2-5-2-5-|7!5---7-5---5---||
E:||0-----7-----7---|0-----7-----7---|3-----3---------|----7-----7---7-||
  1 & 2 & 3 & 4 & 1 & 2 & 3 & 4 & 1 & 2 & 3 & 4 & 1 & 2 & 3 & 4 &


Verse 1
G:|----------------|----------------|----------------|----------------|
D:|----------------|----------------|----------------|----------------|
A:|--5-7---5-7---5-|--5-7---5-7---5\|--2-5---2-5-2-5-|7!5---7-5---5---|
E:|0-----7-----7---|0-----7-----7---|3-----3---------|----7-----7---7-|
  1 & 2 & 3 & 4 & 1 & 2 & 3 & 4 & 1 & 2 & 3 & 4 & 1 & 2 & 3 & 4 &

G:|----------------|----------------|----------------|----------------|
D:|----------------|----------------|----------------|----------------|
A:|--5-7---5-7---5-|--5-7---5-7---5\|--2-5---2-5-2-5-|7!5---7-5---5\--|
E:|0-----7-----7---|0-----7-----7---|3-----3---------|----7-----7-----|
  1 & 2 & 3 & 4 & 1 & 2 & 3 & 4 & 1 & 2 & 3 & 4 & 1 & 2 & 3 & 4 &


Chorus
G:|----------------|----------------|----------------|----------------|
D:|----------------|----------------|----------------|--8-------7-----|
A:|5-5----55-------|------------1-\-|6-6----66-6-----|----------------|
E:|----------0-1-2-|3-3----33-3-----|----------------|6------55-------|
  1 & 2 & 3 & 4 & 1 & 2 & 3 & 4 & 1 & 2 & 3 & 4 & 1 & 2 & 3 & 4 &

G:|----------------|----------------|----------------|----7-------7---|
D:|----------------|--5-------5-----|----------------|----------------|
A:|5-5----55-------|----------------|6-6----66-6-----|5-5-------5-----|
E:|----------0-1-2-|3------33-----5-|--------------0-|----------------|
  1 & 2 & 3 & 4 & 1 & 2 & 3 & 4 & 1 & 2 & 3 & 4 & 1 & 2 & 3 & 4 &

G:|----------------|
D:|----------------|
A:|--5h7-----5h7\--|
E:|----------------|
  1 & 2 & 3 & 4 &

Fill
G:|----------------|----------------|----------------|----------------|
D:|----------------|----------------|----------------|----------------|
A:|--5-7---5-7---5-|--5-7---5-7---5\|--2-5---2-5-2-5-|7!5---7-5---5---|
E:|0-----7-----7---|0-----7-----7---|3-----3---------|----7-----7---7-|
  1 & 2 & 3 & 4 & 1 & 2 & 3 & 4 & 1 & 2 & 3 & 4 & 1 & 2 & 3 & 4 &

Verse 2               x3
G:||----------------|----------------|----------------|----------------||
D:||----------------|----------------|----------------|----------------||
A:||--5-7---5-7---5-|--5-7---5-7---5\|--2-5---2-5-2-5-|7!5---7-5---5---||
E:||0-----7-----7---|0-----7-----7---|3-----3---------|----7-----7---7-||
  1 & 2 & 3 & 4 & 1 & 2 & 3 & 4 & 1 & 2 & 3 & 4 & 1 & 2 & 3 & 4 &

G:|----------------|----------------|----------------|----------------|
D:|----------------|----------------|----------------|----------------|
A:|--5-7---5-7---5-|--5-7---5-7---5\|--2-5---2-5-2-5-|7!5---7-5---5\--|
E:|0-----7-----7---|0-----7-----7---|3-----3---------|----7-----7-----|
  1 & 2 & 3 & 4 & 1 & 2 & 3 & 4 & 1 & 2 & 3 & 4 & 1 & 2 & 3 & 4 &


Chorus 2
G:|----------------|----------------|----------------|----------------|
D:|----------------|----------------|----------------|--8-------7-----|
A:|5-5----55-------|----------------|6-6----66-6-----|----------------|
E:|----------0-1-2-|3-3----33/------|----------------|66-----55-------|
  1 & 2 & 3 & 4 & 1 & 2 & 3 & 4 & 1 & 2 & 3 & 4 & 1 & 2 & 3 & 4 &

G:|----------------|----------------|----------------|--6h7-----6h7---|
D:|----------------|----5-------5---|----------------|----------------|
A:|5-5----55-------|----------------|6-6---xx6-------|55------55------|
E:|----------0-1-2-|33-----333----5-|------------55--|----------------|
  1 & 2 & 3 & 4 & 1 & 2 & 3 & 4 & 1 & 2 & 3 & 4 & 1 & 2 & 3 & 4 &

G:|----------------|----------------|----------------|----------------|
D:|----------------|----5-------5---|----------------|--8-------7-----|
A:|5-5----55-------|----------------|6-6-----6-6-----|----------------|
E:|----------0-1-2-|3-3-----3-3-----|--------------0-|66-----55-------|
  1 & 2 & 3 & 4 & 1 & 2 & 3 & 4 & 1 & 2 & 3 & 4 & 1 & 2 & 3 & 4 &

G:|----------------|----------------|----------------|--6h7-----6h7---|
D:|----------------|----5-------5---|----------------|----------------|
A:|5-5----55-------|----------------|6-6-----6-6-----|5-------5-------|
E:|----------0-1-2-|3-3-----3-3-----|--------------0-|----------------|
  1 & 2 & 3 & 4 & 1 & 2 & 3 & 4 & 1 & 2 & 3 & 4 & 1 & 2 & 3 & 4 &

G:|--6h7-----6h7---|
D:|----------------|
A:|5-------5-------|
E:|----------------|
  1 & 2 & 3 & 4 &

Interlude
G:|----------------|----------------|----------------|----------------|
D:|----------7>----|----------------|----------------|----------------|
A:|------7---------|--7\------------|5>----5-5>----5-|5>----5-5>--7\--|
E:|5>--------------|----------0---5-|----------------|----------------|
  1 & 2 & 3 & 4 & 1 & 2 & 3 & 4 & 1 & 2 & 3 & 4 & 1 & 2 & 3 & 4 &

G:|----------------|----------------|----------------|-----------------|
D:|----------7>----|----------------|----------------|-----------------|
A:|------7---------|--7\------------|5>----5-5>----5-|5>----5-5>--17\--|
E:|5>--------------|----------0---5-|----------------|-----------------|
  1 & 2 & 3 & 4 & 1 & 2 & 3 & 4 & 1 & 2 & 3 & 4 & 1 & 2 & 3 & 4 &

G:|----------------|----------------|----------------|----------------|
D:|----------7~----|----------------|----------------|----------------|
A:|00----7---------|--7\------------|5>----5-5>----5-|5>----5-5>--3---|
E:|----------------|--------0-0---5-|----------------|----------------|
  1 & 2 & 3 & 4 & 1 & 2 & 3 & 4 & 1 & 2 & 3 & 4 & 1 & 2 & 3 & 4 &

G:|----------------|----------------|----------------|----------------|
D:|--5-7---5-7~----|----------------|----------------|----------------|
A:|0-----7---------|--7\------------|5>----5-5>----5-|5>----5-5>--7\--|
E:|----------------|----------0---5-|----------------|----------------|
  1 & 2 & 3 & 4 & 1 & 2 & 3 & 4 & 1 & 2 & 3 & 4 & 1 & 2 & 3 & 4 &

Fill
G:|----------------|----------------|----------------|----------------|
D:|----------------|----------------|----------------|----------------|
A:|--5-7---5-7---5-|--5-7---5-7---5\|--2-5---2-5-2-5-|7!5---7-5---5---|
E:|0-----7-----7---|0-----7-----7---|3-----3---------|----7-----7---7-|
  1 & 2 & 3 & 4 & 1 & 2 & 3 & 4 & 1 & 2 & 3 & 4 & 1 & 2 & 3 & 4 &


Verse 3
G:|----------------|----------------|----------------|----------------|
D:|----------------|----------------|----------------|----------------|
A:|--5-7---5-7---5-|--5-7---5-7---5\|--2-5---2-5-2-5-|7!5---7-5---5---|
E:|0-----7-----7---|0-----7-----7---|3-----3---------|----7-----7---7-|
  1 & 2 & 3 & 4 & 1 & 2 & 3 & 4 & 1 & 2 & 3 & 4 & 1 & 2 & 3 & 4 &

G:|----------------|----------------|----------------|----------------|
D:|----------------|----------------|----------------|----------------|
A:|--5-7---5-7---5-|--5-7---5-7---5\|--2-5---2-5-2-5-|7!5---7-5---5\--|
E:|0-----7-----7---|0-----7-----7---|3-----3---------|----7-----7-----|
  1 & 2 & 3 & 4 & 1 & 2 & 3 & 4 & 1 & 2 & 3 & 4 & 1 & 2 & 3 & 4 &


Chorus 3
G:|----------------|----------------|----------------|----------------|
D:|----------------|--4h5-----4h5---|----------------|--8-------7-----|
A:|5-5----55-------|----------------|6-6----66-6-----|----------------|
E:|----------0-1-2-|3-------3-------|----------------|66-----55-------|
  1 & 2 & 3 & 4 & 1 & 2 & 3 & 4 & 1 & 2 & 3 & 4 & 1 & 2 & 3 & 4 &

G:|----------------|----------------|----------------|--6h7-----6h7---|
D:|----------------|---55-----4h5---|----------------|----------------|
A:|5-5----55-------|----------------|6-6---6-6-------|5-------5-------|
E:|----------0-1-2-|33------33------|------------5---|----------------|
  1 & 2 & 3 & 4 & 1 & 2 & 3 & 4 & 1 & 2 & 3 & 4 & 1 & 2 & 3 & 4 &

G:|----------------|----------------|----------------|----------------|
D:|----------------|--4h5-----4h5---|----------------|--8-------7-----|
A:|5-5----55-------|----------------|6-6----66-6-----|----------------|
E:|----------0-1-2-|3-------3-------|----------------|66-----55-------|
  1 & 2 & 3 & 4 & 1 & 2 & 3 & 4 & 1 & 2 & 3 & 4 & 1 & 2 & 3 & 4 &

G:|----------------|----------------|----------------|--6h7-----6h7---|
D:|----------------|---55-----4h5---|----------------|----------------|
A:|5-5----55-------|----------------|6-6---6-6-------|5-------5-------|
E:|----------0-1-2-|33------33------|------------5---|----------------|
  1 & 2 & 3 & 4 & 1 & 2 & 3 & 4 & 1 & 2 & 3 & 4 & 1 & 2 & 3 & 4 &

G:|--6h7-----6h7---|
D:|----------------|
A:|5-------5-------|
E:|----------------|
  1 & 2 & 3 & 4 &


Outro                x2
G:||----------------|----------------|----------------|----------------||
D:||----------------|----------------|----------------|----------------||
A:||3>----3-3>----3-|3>----3-3>----3-|5>----5-5>----5-|5>----5-5---5---||
E:||----------------|----------------|----------------|----------5---5-||
  1 & 2 & 3 & 4 & 1 & 2 & 3 & 4 & 1 & 2 & 3 & 4 & 1 & 2 & 3 & 4 &

G:|----------------|----------------|----------------|----------------|
D:|----------------|----------------|----------------|----------------|
A:|3>----3-3>---03-|33-666\-3---3---|5>----5-5>------|5-5---5-5-------|
E:|----------------|----------3---3-|----------------|------------53--|
  1 & 2 & 3 & 4 & 1 & 2 & 3 & 4 & 1 & 2 & 3 & 4 & 1 & 2 & 3 & 4 &

G:|----------------|----------------|----------------|--------7-------|
D:|----------------|-----5----------|----------------|----------------|
A:|3>----3-3>---03-|33------3---3---|5>----5-5>----0-|5-55-55---5-5-0-|
E:|----------------|----------3---3-|----------------|----------------|
  1 & 2 & 3 & 4 & 1 & 2 & 3 & 4 & 1 & 2 & 3 & 4 & 1 & 2 & 3 & 4 &

G:|----------------|----------------|----------------|----------------|
D:|----------------|----------------|----------------|----------------|
A:|3>----3-3>---xx-|3!-3!-3!----3---|5>----5-5>----5-|5>----5-5>------|
E:|----------------|---------33---3-|----------------|------------7\--|
  1 & 2 & 3 & 4 & 1 & 2 & 3 & 4 & 1 & 2 & 3 & 4 & 1 & 2 & 3 & 4 &

G:|----------------|----------------|----------------|----------------|
D:|----------------|----------------|----------------|----------------|
A:|3>----3-3>---03-|3!-3!-3!----3---|5>----5-5>----5-|5>----5!5!--5---|
E:|----------------|----------3---3-|----------------|--------------5-|
  1 & 2 & 3 & 4 & 1 & 2 & 3 & 4 & 1 & 2 & 3 & 4 & 1 & 2 & 3 & 4 &

G:|----------------|----------------|----------------|----------------|
D:|----------------|----------------|----------------|----------------|
A:|3>----3-3>----3-|3>----3-3---3---|5>----5-5>----5-|5>----5>----5---|
E:|----------------|----------3---3-|----------------|--------------7\|
  1 & 2 & 3 & 4 & 1 & 2 & 3 & 4 & 1 & 2 & 3 & 4 & 1 & 2 & 3 & 4 &


|| repeat between || as indicated	h hammer on		~ vibrato
/ slide up				p pull off
\ slide down				1. dotted note
> legato (let note ring)		11 fret one, twice
! full stop mute			11 fret eleven
R rest					x ghost note


Outro (more like what JT plays on the recording)
G:||----------------|----------------|----------------|----------------||
D:||----------------|----------------|----------------|----------------||
A:||3>----3-3>----3-|3>----3-3>--3---|5>----5-5>----5-|5>----5-5>--5---||
E:||----------------|----------------|----------------|----------------||
  1 & 2 & 3 & 4 & 1 & 2 & 3 & 4 & 1 & 2 & 3 & 4 & 1 & 2 & 3 & 4 &

Almost there ...

Sign in to get your own page with links to favourite songs and more. You are just one click away...

Login with Facebook Login with Google