Log in

One click and you are in

Login with Facebook Login with Google

Why sign up and log in

Guitar Tabs Explorer
Duran Duran bass tabs for Secret oktober

Bass tabs

Tuning: Standard tuning


Tabbed by: bassm99
E-mail: alanmatthews1966@yahoo.co.uk

"Secret Oktober" From the Single "Union Of The Snake" (1983)
Written by Duran Duran


Verse/Chorus: (Repeat As Required)

G|-----7----7-----5----5----------------------------------------------------|
D|---------------------------5----5----5----5-------------------------------|
A|--55---55----33---33------------------------------------------------------|
E|------------------------33---33---33---33---------------------------------|


Ending:

G|-----7----7---------------------------------------------------------------|
D|--------------------------------------------------------------------------|
A|--55---55---(x16)---------------------------------------------------------|
E|--------------------------------------------------------------------------|

This bass tab is based on live versions from 2011 played by John Taylor.
There wasn't a real bass part on the studio recording.

Almost there ...

Sign in to get your own page with links to favourite songs and more. You are just one click away...

Login with Facebook Login with Google