Log in

One click and you are in

Login with Facebook Login with Google

Why sign up and log in

Guitar Tabs Explorer
Duran Duran bass tabs for Safe

Bass tabs

Duran Duran - Safe - Bass Tab

  Part I

G|----------------|----------------|----------------|----------------|
D|5--5--5---7-8//-|---------7--8//-|---------7--8//-|------5-----5---|
A|----------------|3-x3--3---------|3-x3--3---------|55-x5-----5-----|
E|----------------|----------------|----------------|----------------|

M|1 & 2 & 3 & 4 & |1 & 2 & 3 & 4 & |1 & 2 & 3 & 4 & |1 & 2 & 3 & 4 & |

  Part II

G|5/7--7----------|----------------|
D|----------------|----------------|
A|---5--5---------|----------------| x3
E|------0/1-1-1---|1/3-3-3---------|

M|1 & 2 & 3 & 4 & |1 & 2 & 3 & 4 & |

G|5/7--7----------|----------------|
D|----------------|----------------|
A|---5--5---------|1/3-3-3---------|
E|------0/1-1-1---|----------------|

Almost there ...

Sign in to get your own page with links to favourite songs and more. You are just one click away...

Login with Facebook Login with Google