Log in

One click and you are in

Login with Facebook Login with Google

Why sign up and log in

Guitar Tabs Explorer
Duran Duran bass tabs for Rio

Bass tabs with lyrics

Difficulty: Advanced



Intro:

G| ---------------|----------------|----------------|----------------|
D| ---------5-6-7-|----------5-6-7-|----------5-6-7-|----------5-6-7-|
A| -x7-x5---------|--x7-x5---------|--x7--5---------|--x7--5---------|
E| 0---------------|0---------------|0---------------|0---------------|

M| 1 & 2 & 3 & 4 & |1 & 2 & 3 & 4 & |1 & 2 & 3 & 4 & |1 & 2 & 3 & 4 &

G| ---------------|----------------|----------------|-----x5---------|
D| ---------5-6-7-|----------5-6-7-|-----x7---------|---5------5---5-|
A| --7--5---------|--x7-x5---------|---7------7---7-|3-----------3---|
E| 0---------------|0---------------|5-----------5---|----------------|

M| 1 & 2 & 3 & 4 & |1 & 2 & 3 & 4 & |1 & 2 & 3 & 4 & |1 & 2 & 3 & 4 &

G| ---------------|----------------|-----x6---------|-----x5---------|
D| ---------5-6-7-|----------5-6-7-|--x6------6---6-|---5------5---5-|
A| -x7-x5---------|--x7-x5---------|4-----------4---|3-----------3---|
E| 0---------------|0---------------|----------------|----------------|

M| 1 & 2 & 3 & 4 & |1 & 2 & 3 & 4 & |1 & 2 & 3 & 4 & |1 & 2 & 3 & 4 &

  Verse

G| ---------------|----------------|----------------|-----x5---------|
D| ---------5-6-7-|----------5-6-7-|-----x7---------|---5------5---5-|
A| --7--5---------|--x7-x5---------|---7------7---7-|3-----------3---|
E| 0---------------|0---------------|5-----------5---|----------------|

M| 1 & 2 & 3 & 4 & |1 & 2 & 3 & 4 & |1 & 2 & 3 & 4 & |1 & 2 & 3 & 4 &

G| ---------------|----------------|-----x6---------|------5---------|
D| ---------5-6-7-|----------5-6-7-|---6------6---6-|--x5------5---5-|
A| --7--5---------|--x7-x5---------|4-----------4---|3-----------3---|
E| 0---------------|0---------------|----------------|----------------|

M| 1 & 2 & 3 & 4 & |1 & 2 & 3 & 4 & |1 & 2 & 3 & 4 & |1 & 2 & 3 & 4 &
G| ---------------|----------------|----------------|-----x5---------|
D| ---------5-6-7-|----------5-6-7-|-----x7---------|---5------5---5-|
A| --7-x5---------|---7--5---------|---7------7---7-|3-----------3---|
E| 0---------------|0---------------|5-----------5---|----------------|

M| 1 & 2 & 3 & 4 & |1 & 2 & 3 & 4 & |1 & 2 & 3 & 4 & |1 & 2 & 3 & 4 &


G| ---------------|----------------|-----x6---------|------5---------|
D| ---------5-6-7-|----------5-6-7-|---6------6---6-|---5------5---5-|
A| --7-x5---------|--x7--5---------|4-----------4---|3-----------3---|
E| 0---------------|0---------------|----------------|----------------|

M| 1 & 2 & 3 & 4 & |1 & 2 & 3 & 4 & |1 & 2 & 3 & 4 & |1 & 2 & 3 & 4 &


G| ---------------|----------------|
D| ---------------|----------------|
A| ---------------|------------7//-|
E| 0---------------|----------------|

M| 1 & 2 & 3 & 4 & |1 & 2 & 3 & 4 & |


Chorus

G| ---------------|----------------|----------------|----------------|
D| 2-----2---------|------2---------|0-----0---------|----------4---5-|
A| -------------0-|2---2----x2x4---|--------2--x3x2-|0---------------|
E| ---------2-3---|----------------|----------------|------0-2---3---|

M| 1 & 2 & 3 & 4 & |1 & 2 & 3 & 4 & |1 & 2 & 3 & 4 & |1 & 2 & 3 & 4 &

G| ---------------|----------------|----------------|----------------|
D| 2-----2---------|------2---------|0-----0---------|----------------|
A| -------------0-|2---2----x2x4---|--------2--x3x2-|0---------------|
E| ---------2-3---|----------------|----------------|------0-2-2-3-3-|

M| 1 & 2 & 3 & 4 & |1 & 2 & 3 & 4 & |1 & 2 & 3 & 4 & |1 & 2 & 3 & 4 &

G| ---------------|----------------|----------------|----------------|
D| 2-----2---------|------2---------|0-----0---------|----------4---5-|
A| -------------0-|2---2----x2x4---|--------2--x3x2-|0---------------|
E| ---------2-3---|----------------|----------------|------0-2---3---|

M| 1 & 2 & 3 & 4 & |1 & 2 & 3 & 4 & |1 & 2 & 3 & 4 & |1 & 2 & 3 & 4 &

G| ---------------|----------------|----------------|----------------|
D| 2-----2---------|------2---------|0-----0---------|----------------|
A| -------------0-|2---2----x2x4---|--------2--x3x2-|0---------------|
E| ---------2-3---|----------------|----------------|------0-2-2-3-3-|

M| 1 & 2 & 3 & 4 & |1 & 2 & 3 & 4 & |1 & 2 & 3 & 4 & |1 & 2 & 3 & 4 &

01.36)

G| ---------------|----------------|----------------|-----x5---------|
D| ---------5-6-7-|----------5-6-7-|-----x7---------|--x5------5---5-|
A| -77-55---------|---7-x5---------|---7------7---7-|3-----------3---|
E| 0---------------|0---------------|5-----------5---|----------------|

M| 1 & 2 & 3 & 4 & |1 & 2 & 3 & 4 & |1 & 2 & 3 & 4 & |1 & 2 & 3 & 4 &


G| ---------------|----------------|------6---------|-----x5---------|
D| ---------5-6-7-|----------5-6-7-|--x6------6---6-|---5------5---5-|
A| --7-55---------|---7-x5---------|4-----------4---|3-----------3---|
E| 0---------------|0---------------|----------------|----------------|

M| 1 & 2 & 3 & 4 & |1 & 2 & 3 & 4 & |1 & 2 & 3 & 4 & |1 & 2 & 3 & 4 &


  Verse

G| ---------------|----------------|----------------|-----x5---------|
D| ---------5-6-7-|----------5-6-7-|-----x7---------|---5------5---5-|
A| --7--5---------|--x7-x5---------|---7------7---7-|3-----------3---|
E| 0---------------|0---------------|5-----------5---|----------------|

M| 1 & 2 & 3 & 4 & |1 & 2 & 3 & 4 & |1 & 2 & 3 & 4 & |1 & 2 & 3 & 4 &


G| ---------------|----------------|-----x6---------|------5---------|
D| ---------5-6-7-|----------5-6-7-|---6------6---6-|---5------5---5-|
A| --7-x5---------|--x7-x5---------|4-----------4---|3-----------3---|
E| 0---------------|0---------------|----------------|----------------|

M| 1 & 2 & 3 & 4 & |1 & 2 & 3 & 4 & |1 & 2 & 3 & 4 & |1 & 2 & 3 & 4 &


G| ---------------|----------------|----------------|------5---------|
D| ---------5-6-7-|----------5-6-7-|-----x7---------|---5------5---5-|
A| --7--5---------|---7-x5---------|---7------7---7-|3-----------3---|
E| 0---------------|0---------------|5-----------5---|----------------|

M| 1 & 2 & 3 & 4 & |1 & 2 & 3 & 4 & |1 & 2 & 3 & 4 & |1 & 2 & 3 & 4 &


G| ---------------|----------------|-----x6---------|------5---------|
D| ---------5-6-7-|----------5-6-7-|---6------6---6-|---5------5---5-|
A| --7-x5---------|---7--5---------|4-----------4---|3-----------3---|
E| 0---------------|0---------------|----------------|----------------|

M| 1 & 2 & 3 & 4 & |1 & 2 & 3 & 4 & |1 & 2 & 3 & 4 & |1 & 2 & 3 & 4 &




G| ---------------|----------------|
D| ---------------|----------------|
A| ---------------|------------7//-|
E| 0---------------|----------------|

M| 1 & 2 & 3 & 4 & |1 & 2 & 3 & 4 & |


 (02.20)  Repeat Chorus

(02:48)

G| ---------------|----------------|----------------|----------------|
D| ---------------|--------2-3---4-|-------x4-3-----|----------------|
A| 4------x4-2---0-|----------------|--------------0-|--------2-3---4-|
E| ---------------|----------------|----------------|----------------|

M| 1 & 2 & 3 & 4 & |1 & 2 & 3 & 4 & |1 & 2 & 3 & 4 & |1 & 2 & 3 & 4 &


G| ---------------|----------------|----------------|----------------|
D| ---------------|--------2-3---4-|--------4-3-----|----------------|
A| -------x4-2---0-|----------------|--------------0-|--------2-3---4-|
E| ---------------|----------------|----------------|----------------|

M| 1 & 2 & 3 & 4 & |1 & 2 & 3 & 4 & |1 & 2 & 3 & 4 & |1 & 2 & 3 & 4 &


G
G| ---------------|----------------|----------------|----------------|
D| ------x2-3---4-|--------4-3-----|----------------|----------------|
A| ----------------|--------------0-|--------2-3---4-|-------22-3---4-|
E| ---------------|----------------|----------------|----------------|

M| 1 & 2 & 3 & 4 & |1 & 2 & 3 & 4 & |1 & 2 & 3 & 4 & |1 & 2 & 3 & 4 &


G| ---------------|----------------|----------------|----------------|
D| -------2-3---4-|--------4-3-----|----------------|----------------|
A| ----------------|--------------0-|-------x2-3---4-|-------x2-3-----|
E| ---------------|----------------|----------------|----------------|

M| 1 & 2 & 3 & 4 & |1 & 2 & 3 & 4 & |1 & 2 & 3 & 4 & |1 & 2 & 3 & 4 &

(03.15)

G| -x6-x4---------|----------------|------------2---|----------------|
D| ---------6---6-|--x4--2---------|-----x2--x4---4-|--------4---5-6-|
A| 4-----------4---|----------4---4-|0--4------------|4--2h4----------|
E| ---------------|2-----------2---|----------------|----------------|

M| 1 & 2 & 3 & 4 & |1 & 2 & 3 & 4 & |1 & 2 & 3 & 4 & |1 & 2 & 3 & 4 &


G| -x6-x4---------|----------------|------------2---|----------------|
D| ---------6---6-|---4-x2---------|-----x2--x4---4-|--------4---5-6-|
A| 4-----------4---|----------4---4-|0--4------------|4--2h4----------|x2
E| ---------------|2-----------2---|----------------|----------------|

M| 1 & 2 & 3 & 4 & |1 & 2 & 3 & 4 & |1 & 2 & 3 & 4 & |1 & 2 & 3 & 4 &


G| -x6-x4---------|----------------|----------------|----------------|
D| ---------6---6-|---4-x2---------|----------------|------------12/-|
A| 4-----------4---|----------4---4-|0-0-0-0-0-0-0-0-|----------------|
E| ---------------|2-----------2---|----------------|----------------|

M| 1 & 2 & 3 & 4 & |1 & 2 & 3 & 4 & |1 & 2 & 3 & 4 & |1 & 2 & 3 & 4 &

 (03:42)

G| ---------------|----------------|----------------|------5---------|
D| ---------5-6-7-|----------5-6-7-|-----x7---------|---5------5---5-|
A| -x7-x5---------|--x7-x5---------|--x7------7---7-|3-----------3---|
E| 0---------------|0---------------|5-----------5---|----------------|

M| 1 & 2 & 3 & 4 & |1 & 2 & 3 & 4 & |1 & 2 & 3 & 4 & |1 & 2 & 3 & 4 &


G| ---------------|----------------|------6---------|-----x5---------|
D| ---------5-6-7-|----------5-6-7-|--x6------6---6-|--x5------5---5-|
A| -x7-x5---------|---7--5---------|4-----------4---|3-----------3---|
E| 0---------------|0---------------|----------------|----------------|

M| 1 & 2 & 3 & 4 & |1 & 2 & 3 & 4 & |1 & 2 & 3 & 4 & |1 & 2 & 3 & 4 &


G| ---------------|----------------|----------------|-----x5---------|
D| ---------5-6-7-|----------5-6-7-|-----x7---------|---5------5---5-|
A| -x7-x5---------|---7-x5---------|--x7------7---7-|3-----------3---|
E| 0---------------|0---------------|5-----------5---|----------------|

M| 1 & 2 & 3 & 4 & |1 & 2 & 3 & 4 & |1 & 2 & 3 & 4 & |1 & 2 & 3 & 4 &


G| ---------------|----------------|-----x6---------|-----x5---------|
D| ---------5-6-7-|----------5-6-7-|---6------6---6-|---5------5---5-|
A| -x7-x5---------|---7-x5---------|4-----------4---|3-----------3---|
E| 0---------------|0---------------|----------------|----------------|

M| 1 & 2 & 3 & 4 & |1 & 2 & 3 & 4 & |1 & 2 & 3 & 4 & |1 & 2 & 3 & 4 &


G| ---------------|----------------|
D| ---------------|----------------|
A| ---------------|------------7//-|
E| 0---------------|----------------|

M| 1 & 2 & 3 & 4 & |1 & 2 & 3 & 4 & |

 (04:12) repeat chorus  till end

Almost there ...

Sign in to get your own page with links to favourite songs and more. You are just one click away...

Login with Facebook Login with Google