Log in

One click and you are in

Login with Facebook Login with Google

Why sign up and log in

Guitar Tabs Explorer
Duran Duran bass tabs for Red carpet massacre

Bass tabs

t
verses
G |-----------------|-----------------|-----------------|-----------------|
D |-----------------|-----------------|-----------------|-----------------|
A |6-6-6-6-6-6-6-6--|9-9-9-9-9-9-9-9--|6-6-6-6-6-6-6-6--|9-9-9-9-9-9-9-9--|
E |-----------------|-----------------|-----------------|-----------------|

G |-----------------|-----------------|-----------------|-----------------|
D |-----------------|-----------------|-----------------|-----------------|
A |6-6-6-6-6-6-6-6--|9-9-9-9-9-9-9-9--|2-2-2-2-2-2-2-2--|2-2-2-2-2-2-2-2--|
E |-----------------|-----------------|-----------------|-----------------|

G |-----------------|-----------------|-----------------|-----------------|
D |-----------------|-----------------|-----------------|-----------------|
A |6-6-6-6-6-6-6-6--|9-9-9-9-9-9-9-9--|6-6-6-6-6-6-6-6--|9-9-9-9-9-9-9-9--|
E |-----------------|-----------------|-----------------|-----------------|

G |-----------------|-----------------|-----------------|-----------------|
D |-----------------|-----------------|-----------------|-----------------|
A |6-6-6-6-6-6-6-6--|9-9-9-9-9-9-9-9--|2-2-2-2-2-2-2-2--|2-2-2-2-2-2-2-2--|
E |-----------------|-----------------|-----------------|-----------------|

G |-----------------|-----------------|-----------------|-----------------|
D |-----------------|-----------------|-----------------|-----------------|
A |6-6-6-6-6-6-6-6--|9-9-9-9-9-9-9-9--|6-6-6-6-6-6-6-6--|9-9-9-9-9-9-9-9--|
E |-----------------|-----------------|-----------------|-----------------|

G |-----------------|-----------------|-----------------|-----------------|
D |-----------------|-----------------|-----------------|-----------------|
A |6-6-6-6-6-6-6-6--|9-9-9-9-9-9-9-9--|2-2-2-2-2-2-2-2--|2-2-2-2-2-2-2-2--|
E |-----------------|-----------------|-----------------|-----------------|


chorus

G |--8---8-------8--|--11---11-------11--|--8---8-------8--|--11---11-------11--|
D |-----------------|--------------------|-----------------|--------------------|
A |6---6---6>--6----|9----9----9>--9-----|6---6---6>--6----|9----9----9>--9-----|
E |-----------------|--------------------|-----------------|--------------------|

G |--8---8-------8--|--11---11-------11--|--4---4-------4--|--4---4-------4--|
D |-----------------|--------------------|-----------------|-----------------|
A |6---6---6>--6----|9----9----9>--9-----|2---2---2>--2----|2---2---2>--2----|
E |-----------------|--------------------|-----------------|-----------------|


verses
G |-----------------|-----------------|-----------------|-----------------|
D |-----------------|-----------------|-----------------|-----------------|
A |6-6-6-6-6-6-6-6--|9-9-9-9-9-9-9-9--|6-6-6-6-6-6-6-6--|9-9-9-9-9-9-9-9--|
E |-----------------|-----------------|-----------------|-----------------|

G |-----------------|-----------------|-----------------|-----------------|
D |-----------------|-----------------|-----------------|-----------------|
A |6-6-6-6-6-6-6-6--|9-9-9-9-9-9-9-9--|2-2-2-2-2-2-2-2--|2-2-2-2-2-2-2-2--|
E |-----------------|-----------------|-----------------|-----------------|

G |-----------------|-----------------|-----------------|-----------------|
D |-----------------|-----------------|-----------------|-----------------|
A |6-6-6-6-6-6-6-6--|9-9-9-9-9-9-9-9--|6-6-6-6-6-6-6-6--|9-9-9-9-9-9-9-9--|
E |-----------------|-----------------|-----------------|-----------------|

G |-----------------|-----------------|-----------------|-----------------|
D |-----------------|-----------------|-----------------|-----------------|
A |6-6-6-6-6-6-6-6--|9-9-9-9-9-9-9-9--|2-2-2-2-2-2-2-2--|2-2-2-2-2-2-2-2--|
E |-----------------|-----------------|-----------------|-----------------|

G |-----------------|-----------------|-----------------|-----------------|
D |-----------------|-----------------|-----------------|-----------------|
A |6-6-6-6-6-6-6-6--|9-9-9-9-9-9-9-9--|6-6-6-6-6-6-6-6--|9-9-9-9-9-9-9-9--|
E |-----------------|-----------------|-----------------|-----------------|

G |-----------------|-----------------|-----------------|-----------------|
D |-----------------|-----------------|-----------------|-----------------|
A |6-6-6-6-6-6-6-6--|9-9-9-9-9-9-9-9--|2-2-2-2-2-2-2-2--|2-2-2-2-2-2-2-2--|
E |-----------------|-----------------|-----------------|-----------------|


chorus
G |--8---8-------8--|--11---11-------11--|--8---8-------8--|--11---11-------11--|
D |-----------------|--------------------|-----------------|--------------------|
A |6---6---6>--6----|9----9----9>--9-----|6---6---6>--6----|9----9----9>--9-----|
E |-----------------|--------------------|-----------------|--------------------|


G |--8---8-------8--|--11---11-------11--|--4---4-------4--|--4---4-------4--|
D |-----------------|--------------------|-----------------|-----------------|
A |6---6---6>--6----|9----9----9>--9-----|2---2---2>--2----|2---2---2>--2----|
E |-----------------|--------------------|-----------------|-----------------|


final/outro
G |--8---8-------8--|--11---11-------11--|--8---8-------8--|--11---11-------11--|
D |-----------------|--------------------|-----------------|--------------------|
A |6---6---6>--6----|9----9----9>--9-----|6---6---6>--6----|9----9----9>--9-----|
E |-----------------|--------------------|-----------------|--------------------|


G |--8---8-------8--|--11---11-------11--|--4---4-------4--|--4---4-------4--|
D |-----------------|--------------------|-----------------|-----------------|
A |6---6---6>--6----|9----9----9>--9-----|2---2---2>--2----|2---2---2>--2----|
E |-----------------|--------------------|-----------------|-----------------|

Almost there ...

Sign in to get your own page with links to favourite songs and more. You are just one click away...

Login with Facebook Login with Google