Log in

One click and you are in

Login with Facebook Login with Google

Why sign up and log in

Guitar Tabs Explorer
Duran Duran bass tabs for Pressure off

Bass tabs

Intro 0:10
G|------------------|
D|------------------|
A|--------3------0--|
E|0-----------------|
Verses
G|---------------|--------------------|------------|----------------|
D|---------------|--------------------|------------|----------------|
A|---------------|--------------------|------------|----------------|
E|0-0---0-0-0----|--035-5-53-32-20----|--0-----0-0-|-035-5-53-32-20-|

G|---------------|--------------------|------------|----------------|
D|---------------|--------------------|------------|----------------|
A|---------------|--------------------|------------|----------------|
E|0-0---0-0-0----|--035-5-53-32-20----|--0-----0-0-|-035-5-53-32-20-|


Chorus
G|------------------------------------------------|------------------------------------------|
D|----0/2--210------------------4/5---054-----4/5-|054--2-2-210------------4/5---054-----4/5-|
A|-----------------3-3--320-----------------------|--------------33-320----------------------|
E|0--------------------------5-------------5------|---------------------5-------------5------|

G|------------------------------------------|----------------------------------------|
D|054-2-2-210-------------4/5--054-----4/5--|054-2-2-210------------4/5-054----------|
A|-------------3-3-320----------------------|------------3-3-320---------------------|
E|---------------------5------------5-------|--------------------5-----------578911--|


Verses
G|---------------|--------------------|------------|----------------|
D|---------------|--------------------|------------|----------------|
A|---------------|--------------------|------------|----------------|
E|0-0---0-0-0----|--035-5-53-32-20----|--0-----0-0-|-035-5-53-32-20-|

G|---------------|--------------------|------------|----------------|
D|---------------|--------------------|------------|----------------|
A|---------------|--------------------|------------|----------------|
E|0-0---0-0-0----|--035-5-53-32-20----|--0-----0-0-|-035-5-53-32-20-|


Chorus
G|------------------------------------------------|------------------------------------------|
D|----0/2--210------------------4/5---054-----4/5-|054--2-2-210------------4/5---054-----4/5-|
A|-----------------3-3--320-----------------------|--------------33-320----------------------|
E|0--------------------------5-------------5------|---------------------5-------------5------|

G|------------------------------------------|----------------------------------------|
D|054-2-2-210-------------4/5--054-----4/5--|054-2-2-210------------4/5-054----------|
A|-------------3-3-320----------------------|------------3-3-320---------------------|
E|---------------------5------------5-------|--------------------5-----------578911--|


Verse (2:40-2:55)
G|----------------------|
D|----------------------|
A|--------3------0------|
E|0---------------------|


NO Bass (2:55-3:08)


Interlude (3:08)
G|------------------|-------------------|------------------|
D|------------------|-------------------|------------------|
A|--------3------0--|--------3------0---|--------3------0--|
E|0-----------------|0------------------|0-----------------|


Chorus/final
G|------------------------------------------------|------------------------------------------|
D|----0/2--210------------------4/5---054-----4/5-|054--2-2-210------------4/5---054-----4/5-|
A|-----------------3-3--320-----------------------|--------------33-320----------------------|
E|0--------------------------5-------------5------|---------------------5-------------5------|

G|------------------------------------------|----------------------------------------|
D|054-2-2-210-------------4/5--054-----4/5--|054-2-2-210------------4/5-054----------|
A|-------------3-3-320----------------------|------------3-3-320---------------------|
E|---------------------5------------5-------|--------------------5-----------578911--|

Almost there ...

Sign in to get your own page with links to favourite songs and more. You are just one click away...

Login with Facebook Login with Google