Log in

One click and you are in

Login with Facebook Login with Google

Why sign up and log in

Guitar Tabs Explorer
Duran Duran bass tabs for Planet earth

Bass tabs

Tuning: Standard (E A D G)

Difficulty: Intermediate
Intro - 0:10
G|---------|---------4---5-|
D|---------|---------------|
A|---------|-----0-2---3---|
E|---------|---------------|

G|---------|---------------|
D|---------|---------4---5-|
A|-5---x5--|-x5--0---------|
E|---------|-------2---3---|

G|---------|---------4---5-|---------|---------------|
D|---------|---------------|---------|---------4---5-|
A|-5---x5--|-x5--0-2---3---|-5---x5--|-x5--0---------|
E|---------|---------------|---------|-------2---3---|

G|---------|---------------|---------|---------------|
D|---------|-------3-3-----|---------|---------4---5-|
A|-5---x5--|-x5--0-----3-3-|-5---x5--|-x5--0---------|  FOUR times
E|---------|---------------|---------|-------2---3---|


Pre-chorus - 0:52
G|---------|----------|----------|-----------|
D|---------|----------|-3-3-3-3--|-----------|
A|-5-5-5-5-|-5-5-5-50-|--------0-|-3-3-33-44-|
E|---------|----------|----------|-----------|

G|----------|----------|----------|----55----66-|
D|----------|----------|-3333333--|-------------|
A|-55555555-|-55555550-|--------0-|-33----44----|
E|----------|----------|----------|-------------|

G|----------|----------|-------------|----55---5---6-|
D|----------|----------|----33----33-|---------------|
A|-55555555-|-55555550-|-------------|-33----3---4---|
E|----------|----------|-11----11----|---------------|

Chorus - 1:13
G|---------|---------------|-------------|
D|---------|---------5---6-|-------------|
A|---------|---------------|------x3-3-3-|  TWO times
E|-0-0---0-|-3-3--x3---4---|-5-5---------|

G|------------|---------------|-------------|
D|------------|---------5---6-|-------------|
A|------------|---------------|------x3-3-3-|
E|-0-0-0-x0-2-|-3-3--x3---4---|-5-5---------|


Verse - 1:29
G|--------|-------------|--------|---------------|
D|--------|-------------|--------|---------4---5-|
A|-5---x5-|--x5-0-22-33-|-5---x5-|--x5-0---------|  TWO times
E|--------|-------------|--------|-------2---3---|

G|--------|-------------|--------|---------------|
D|--------|-------33----|--------|---------4---5-|
A|-5---x5-|--x5-0----33-|-5---x5-|--x5-0---------|  TWO times
E|--------|-------------|--------|-------2---3---|


Verse - 1:57
G|---------|-------------|---------|---------------|
D|---------|-------------|---------|---------4---5-|
A|-5-5-5-5-|-5-5-0-22-33-|-5-5-5-5-|-5-5-0---------|
E|---------|-------------|---------|-------2---3---|


Pre-chorus - 2:04
G|----------|-----------|-------------|----55---5---6-|
D|----------|-----------|----33----33-|---------------|
A|-5-5--555-|-x555-x555-|-------------|-33----3---4---|
E|----------|-----------|-11----11----|---------------|

G|----------|----------|-------------|----55---5---6-|
D|----------|----------|----33----33-|---------------|
A|-55555555-|-55555555-|-------------|-33----3---4---|
E|----------|----------|-11----11----|---------------|


Chorus - 2:18
G|---------|---------------|-------------|
D|---------|---------5---6-|-------------|
A|---------|---------------|------x3-3-3-|
E|-0-0---0-|-3-3--x3---4---|-5-5---------|

G|----------|---------------|-------------|
D|----------|---------5---6-|-------------|
A|----------|---------------|------x3-3-3-|
E|-0-0-/12\-|-3-3--x3---4---|-5-5---------|

G|------------|---------------|-------------|
D|------------|---------5---6-|-------------|
A|------------|---------------|------x3-3-3-|
E|-0-0-0-x0-2-|-3-3--x3---4---|-5-5---------|


Bridge - 2:34
G|------|------|------|-----4---5-|
D|------|------|------|-----------|
A|------|------|------|---2---3---|
E|------|------|------|-----------|
             s p s p

G|---5h7-|---5h7-|---5h7-|-----4---5-|
D|-------|-------|-------|-----------|
A|-------|-------|-------|-0h2---3---|  TWO times
E|-------|-------|-------|-----------|
   p    p    p   s  p s p

G|---5h7-|-------|---5h7-|-------|
D|-------|-------|-------|-------|
A|-------|-------|-------|-------|
E|-------|-------|-------|-------|
   p        p

G|---5h7-5h7--|
D|------------|
A|-5----------|  FOUR times
E|------------|
  s p  p

G|---5h7-5h7-5h7-|
D|---------------|
A|-5-------------|  NINE times
E|---------------|
  s p  p  p

G|------4---5-|
D|------------|
A|--0h2---3---|
E|------------|
  s  p s p


Verse - 3:27
G|---------------|-----------------|---------------|-------------5---6-|
D|-0-000-000-000-|-000-000-000-000-|-3-333-333-333-|-333-333-----------|
A|---------------|-----------------|---------------|---------0-3---4---|
E|---------------|-----------------|---------------|-------------------|

G|---------------|-----------------|---------------|-------------5---6-|
D|-0-000-000-000-|-000-000-000-000-|-3-333-333-333-|-------------------|
A|---------------|-----------------|---------------|-333-333-0-3---4---|  SIX times
E|---------------|-----------------|---------------|-------------------|


Chorus - 4:16
G|---------|---------------|-------------|
D|---------|---------5---6-|-------------|
A|---------|---------------|------x3-3-3-|
E|-0-0---0-|-3-3--x3---4---|-5-5---------|

G|----------|---------------|-------------|
D|----------|---------5---6-|-------------|
A|----------|---------------|------x3-3-3-|
E|-0-0-/12\-|-3-3--x3---4---|-5-5---------|

G|------------|---------------|-------------|
D|------------|---------5---6-|-------------|
A|------------|---------------|------x3-3-3-|
E|-0-0-0-x0-2-|-3-3--x3---4---|-5-5---------|


Verse - 4:31
G|---------------|-----------------|---------------|-------------5---6-|
D|-0-000-000-000-|-000-000-000-000-|-3-333-333-333-|-333-333-----------|
A|---------------|-----------------|---------------|---------0-3---4---|
E|---------------|-----------------|---------------|-------------------|

G|---------------|-----------------|---------------|-------------5---6-|
D|-0-000-000-000-|-000-000-000-000-|-3-333-333-333-|-------------------|
A|---------------|-----------------|---------------|-333-333-0-3---4---|  SIX times
E|---------------|-----------------|---------------|-------------------|


Chorus - 5:21
G|------------|---------------|-------------|
D|------------|---------5---6-|-------------|
A|------------|---------------|------x3-3-3-|  EIGHT times
E|-0-0-0-x0-2-|-3-3--x3---4---|-5-5---------|

G|------------|---------------|-------------|
D|-2--2-2-2-2-|---------5---6-|-------------|
A|------------|---------------|------x3-3-3-|  TWO times
E|------------|-3-3--x3---4---|-5-5---------|


************************************

| x Dead note
| / Slide up
| \ Slide down
| s Slap
| h Hammer-on

************************************

Almost there ...

Sign in to get your own page with links to favourite songs and more. You are just one click away...

Login with Facebook Login with Google