Log in

One click and you are in

Login with Facebook Login with Google

Why sign up and log in

Guitar Tabs Explorer
Duran Duran bass tabs for Out of my mind

Bass tabs

verses and chorus -repeat this:
G |-------------------------------|-----------------|-----------------|
D |-------------------------------|-----------------|24-4/2-----------|
A |4-4/2--------------------------|4-4/2-4-4-44-----|-------4-4-44----|
E |------55-5--4-4/2-2-2-22-------|-----------------|-----------------|

variations
G |-------------------------------|-----------------|-----------------|
D |-------------------------------|-----------------|24-4/2-4-4-44----|
A |4-4/2--------------------------|4-4/2-4-4-44-----|-----------------|
E |------55-5--4-4/2-2-2-22-------|-----------------|-----------------|

G |-------------------------------|-----------------|-----------------|
D |-------------------------------|-----------------|24-4/2-6-6-66----|
A |4-4/2--------------------------|4-4/2-4-4-44-----|-----------------|
E |------55-5--4-4/2-2-2-22-------|-----------------|-----------------|

interlude
G |-----------------|----------------|-----------|
D |-----------------|----------------|-----------|
A |-------7---------|-------7--------|-------7---|
E |5---5---7--------|5---5---7-------|5---5------|

Almost there ...

Sign in to get your own page with links to favourite songs and more. You are just one click away...

Login with Facebook Login with Google