Log in

One click and you are in

Login with Facebook Login with Google

Why sign up and log in

Guitar Tabs Explorer
Duran Duran chords for Ordinary world

Guitar chords with lyrics

Ordinary World
			  Duran Duran


Here’s my shot at Duran Duran’s Ordinary World.  I transposed it down
one step to make it a little easier to sing.  So, if you want to play
along with the CD, then transpose back up one full step.
---------------------------------------------------------------------
Ordinary World - Duran Duran
Intro (same as chorus):  A chord diagramA augmentedA - A chord diagramE minorEm - G6/C A chord diagramG+G - A chord diagramD MajorD	(2x)

A chord diagramB minorBm
Came in from ...
A chord diagramA augmentedA         A chord diagramE minorEm
on the ave...
A chord diagramB minorBm                               A chord diagramA augmentedA    A chord diagramE minorEm
thought I heard ...
A chord diagramB minorBm
I turned on the ..
A chord diagramA augmentedA           A chord diagramE minorEm
and the ...
A chord diagramB minorBm                                A chord diagramA augmentedA     A chord diagramE minorEm
still I can’t escape ...

A chord diagramB minorBm
What is ...
A chord diagramF# minorF#m
Crazy, some ...
A chord diagramC#m7C#m7                           A chord diagramG+G
Where is the life ...
gone away

A chord diagramA augmentedA                         A chord diagramE minorEm
But I won’t cry ...
                     G6/C
there’s an ...
        A chord diagramG+G           A chord diagramD MajorD
somehow I ...
A chord diagramA augmentedA                        A chord diagramE minorEm
And as I try ....
                 G6/C
to the ...
        A chord diagramG+G           A chord diagramD MajorD
I will learn ...

(Break: finger pick a A chord diagramB minorBm with some variations, walking down the high notes)

(The rest of the song is the same as above!)

---------------------------


Solo:

--10-10-10-10---9-9-9--------------------
------------------------12-12-12---10-10-
-----------------------------------------
-----------------------------------------
-----------------------------------------
-----------------------------------------

--12-12-12-12---10-10-10---9-9-9--------------------------------
-----------------------------------12-12--10---10-10-10---10----
-------------------------------------------------------------12-
----------------------------------------------------------------
----------------------------------------------------------------
----------------------------------------------------------------

Other versions of Ordinary World

Ordinary world (Ver. 2)Chords
Ordinary world (Ver. 3)Chords
Ordinary world acousticChords
Ordinary worldTabs

Almost there ...

Sign in to get your own page with links to favourite songs and more. You are just one click away...

Login with Facebook Login with Google