Log in

One click and you are in

Login with Facebook Login with Google

Why sign up and log in

Guitar Tabs Explorer
Duran Duran bass tabs for Only in dreams

Bass tabs

Bass: 1:25

VERSES

G |-----------------|---9-------9-----|--7--------------|--9------9-------|
D |--9-------9------|-----------------|---------7-------|-----------------|
A |-----------------|07---7-0-7---7---|5---5------------|7---7--7---7-----|
E |7---7-0-7---7----|-----------------|-------5---5-----|-----------------|

G |-----------------|---9-------9-----|--7--------------|--9------9-------|
D |--9-------9------|-----------------|---------7-------|-----------------|
A |-----------------|07---7-0-7---7---|5---5------------|7---7--7---7-----|
E |7---7-0-7---7----|-----------------|-------5---5-----|-----------------|

Chorus

G |-----------------|-----------------|-----------------|
D |-----------------|9--9-9--------9--|5-54-4-----------|
A |7---7-7----------|-----------------|-------2---------|
E |-----------------|-----------------|-----------------|

G |-----------------|-----------------|--------------------|
D |-----------------|9--9-9--------9--|5-54-4--------------|
A |7---7-7----------|-----------------|--------------------|
E |-----------------|-----------------|-------33-44-55-6---|


VERSES

G |-----------------|---9-------9-----|--7--------------|--9------9-------|
D |--9-------9------|-----------------|---------7-------|-----------------|
A |-----------------|07---7-0-7---7---|5---5------------|7---7--7---7-----|
E |7---7-0-7---7----|-----------------|-------5---5-----|-----------------|

G |-----------------|---9-------9-----|--7--------------|--9------9-------|
D |--9-------9------|-----------------|---------7-------|-----------------|
A |-----------------|07---7-0-7---7---|5---5------------|7---7--7---7-----|
E |7---7-0-7---7----|-----------------|-------5---5-----|-----------------|


CHORUS

G |-----------------|-----------------|-----------------|
D |-----------------|9--9-9--------9--|5-54-4-----------|
A |7---7-7----------|-----------------|-------2---------|
E |-----------------|-----------------|-----------------|

G |-----------------|-----------------|--------------------|
D |-----------------|9--9-9--------9--|5-54-4--------------|
A |7---7-7----------|-----------------|--------------------|
E |-----------------|-----------------|-------33-44-55-6---|


SYNTH BASS

G |----------------------------------|
D |----------------------------------|
A |--------------5~------------------|
E |7~-----0~-------------5~----------|

G |----------------------------------|
D |----------------------------------|
A |--------------5~------------------|
E |7~-----0~-------------5~----------|


CHORUS

G |-----------------|-----------------|-----------------|
D |-----------------|9--9-9--------9--|5-54-4-----------|
A |7---7-7----------|-----------------|-------2---------|
E |-----------------|-----------------|-----------------|

G |-----------------|-----------------|--------------------|
D |-----------------|9--9-9--------9--|5-54-4--------------|
A |7---7-7----------|-----------------|--------------------|
E |-----------------|-----------------|-------33-44-55-6---|


NO BASS 4:37


SYNTH BASS/ UNTIL THE FINAL

G |----------------------------------|
D |----------------------------------|
A |--------------5~------------------|
E |7~-----0~-------------5~----------|

G |----------------------------------|
D |----------------------------------|
A |--------------5~------------------|
E |7~-----0~-------------5~----------|

Almost there ...

Sign in to get your own page with links to favourite songs and more. You are just one click away...

Login with Facebook Login with Google