Log in

One click and you are in

Login with Facebook Login with Google

Why sign up and log in

Guitar Tabs Explorer
Duran Duran bass tabs for On evil beach

Bass tabs

On Evil Beach
Duran Duran
Paper Gods
Warner Bros. Records 551955-2 (Target Store album bonus track)
2015

John Taylor on bass
4/4 timing
standard tuning, key E minor
pedals: distortion plus something?
Intro                x2
G:||----------------|----------------|-----------55!R-|----------------||
D:||-----------77!R-|-----------77!R-|---55!55--------|---55!55---77!R-||
A:||---77!77--------|---77!77--------|--------3>------|----------------||
E:||0>------5>------|0>------5>------|3>--------------|3>------5>------||
  1 & 2 & 3 & 4 & 1 & 2 & 3 & 4 & 1 & 2 & 3 & 4 & 1 & 2 & 3 & 4 &


Verse 1
G:|----------------|----------------|-----------55!R-|-----------55!R-|
D:|-----------77!R-|-----------77!R-|---55!55--------|---55!55--------|
A:|---77!77--------|---77!77--------|--------3>------|--------3>------|
E:|0>------5>------|0>------5>------|3>--------------|3>--------------|
  1 & 2 & 3 & 4 & 1 & 2 & 3 & 4 & 1 & 2 & 3 & 4 & 1 & 2 & 3 & 4 &

G:|----------------|----------------|-----------55!R-|----------------|
D:|-----------77!R-|-----------77!R-|---55!55--------|---55!55--7---9-|
A:|---77!77--------|---77!77--------|--------3>------|----------------|
E:|0>------5>------|0>------5>------|3>--------------|3>------5---7---|
  1 & 2 & 3 & 4 & 1 & 2 & 3 & 4 & 1 & 2 & 3 & 4 & 1 & 2 & 3 & 4 &

G:|----------------|----------------|
D:|----------------|----------------|
A:|------R---------|------R---------|
E:|----------------|----------------|
  1 & 2 & 3 & 4 & 1 & 2 & 3 & 4 &

Chorus
G:|----------------|----------------|-----------55!R-|----------------|
D:|-----------77!R-|-----------77!R-|---55!55--------|---55!55---77!R-|
A:|---77!77--------|---77!77--------|--------3>------|----------------|
E:|0>------5>------|0>------5>------|3>--------------|3>------5>------|
  1 & 2 & 3 & 4 & 1 & 2 & 3 & 4 & 1 & 2 & 3 & 4 & 1 & 2 & 3 & 4 &

G:|----------------|----------------|-----------55!R-|----------------|
D:|-----------77!R-|-----------77!R-|---55!55--------|---55!55--7---9-|
A:|---77!77--------|---77!77--------|--------3>------|----------------|
E:|0>------5>------|0>------5>------|3>--------------|3>------5---7---|
  1 & 2 & 3 & 4 & 1 & 2 & 3 & 4 & 1 & 2 & 3 & 4 & 1 & 2 & 3 & 4 &

Fill                 x2
G:||----------------|----------------|-----------55!R-|----------------||
D:||-----------77!R-|-----------77!R-|---55!55--------|---55!55--7---9-||
A:||---77!77--------|---77!77--------|--------3>------|----------------||
E:||0>------5>------|0>------5>------|3>--------------|3>------5---7---||
  1 & 2 & 3 & 4 & 1 & 2 & 3 & 4 & 1 & 2 & 3 & 4 & 1 & 2 & 3 & 4 &


Verse 2
G:|----------------|----------------|-----------55!R-|----------------|
D:|----------------|----------------|---55!55--------|---55!55--7---9-|
A:|------R---------|------R---------|--------3>------|----------------|
E:|----------------|----------------|3>--------------|3>------5---7---|
  1 & 2 & 3 & 4 & 1 & 2 & 3 & 4 & 1 & 2 & 3 & 4 & 1 & 2 & 3 & 4 &

G:|----------------|----------------|-----------55!R-|----------------|
D:|-----------77!R-|-----------77!R-|---55!55--------|---55!55--7---9-|
A:|---77!77--------|---77!77--------|--------3>------|----------------|
E:|0>------5>------|0>------5>------|3>--------------|3>------5---7---|
  1 & 2 & 3 & 4 & 1 & 2 & 3 & 4 & 1 & 2 & 3 & 4 & 1 & 2 & 3 & 4 &

G:|----------------|----------------|
D:|----------------|----------------|
A:|------R---------|------R---------|
E:|----------------|----------------|
  1 & 2 & 3 & 4 & 1 & 2 & 3 & 4 &


Chorus Reprise
G:|----------------|----------------|-----------55!R-|----------------|
D:|-----------77!R-|-----------77!R-|---55!55--------|---55!55---77!R-|
A:|---77!77--------|---77!77--------|--------3>------|----------------|
E:|0>------5>------|0>------5>------|3>--------------|3>------5>------|
  1 & 2 & 3 & 4 & 1 & 2 & 3 & 4 & 1 & 2 & 3 & 4 & 1 & 2 & 3 & 4 &

G:|----------------|----------------|-----------55!R-|----------------|
D:|-----------77!R-|-----------77!R-|---55!55--------|---55!55--77--99|
A:|---77!77--------|---77!77--------|--------3>------|----------------|
E:|0>------5>------|0>------5>------|3>--------------|3>------5---7---|
  1 & 2 & 3 & 4 & 1 & 2 & 3 & 4 & 1 & 2 & 3 & 4 & 1 & 2 & 3 & 4 &

Fill Reprise
G:|----------------|----------------|-----------55!R-|----------------|
D:|-----------77!R-|-----------77!R-|---55!55--------|---55!55--7---9-|
A:|---77!77--------|---77!77--------|--------3>------|----------------|
E:|0>------5>------|0>------5>------|3>--------------|3>------5---7---|
  1 & 2 & 3 & 4 & 1 & 2 & 3 & 4 & 1 & 2 & 3 & 4 & 1 & 2 & 3 & 4 &

G:|----------------|----------------|----------------|----------------|
D:|----------------|----------------|----------------|----------------|
A:|------R---------|------R---------|------R---------|------R---------|
E:|----------------|----------------|----------------|----------------|
  1 & 2 & 3 & 4 & 1 & 2 & 3 & 4 & 1 & 2 & 3 & 4 & 1 & 2 & 3 & 4 &


Outro                x2
G:||----------------|----------------|-----------55!R-|----------------||
D:||-----------77!R-|-----------77!R-|---55!55--------|---55!55--7---9-||
A:||---77!77--------|---77!77--------|--------3>------|----------------||
E:||0>------5>------|0>------5>------|3>--------------|3>------5---7---||
  1 & 2 & 3 & 4 & 1 & 2 & 3 & 4 & 1 & 2 & 3 & 4 & 1 & 2 & 3 & 4 &


|| repeat between || as indicated		h hammer on		~ vibrato
/ slide up					p pull off		^ triplet
\ slide down					1. dotted note
> legato (let note ring)			11 fret one, twice
! full stop mute				11 fret eleven
R rest						x ghost note

Almost there ...

Sign in to get your own page with links to favourite songs and more. You are just one click away...

Login with Facebook Login with Google