Log in

One click and you are in

Login with Facebook Login with Google

Why sign up and log in

Guitar Tabs Explorer
Duran Duran bass tabs for New religion

Bass tabs

Standard tuning


Main Riff       Alt end
G ||-----------||   |-----------|
D ||-------5---||   |-------5-5-|
A ||---5h7---5-||   |---5h7-----|
E ||-0---------|| 6x |-0---------|

G |------------|---------------|
D |------------|---------------|
A |--33-3-33-3-|-33-3-3/55-66--|
E |------------|---------------|

Main  7x

Slap riff
   s s p s p
G |-------6---7-|
D |-------------|
A |---0-4---5---|
E |-0-----------|

Main 3x

Slap riff (but not slapped)

Main 3x

Slap riff

Main 3x

Transition riff
G |--------------|
D |--------------|
A |---0-4-4-5-5--|
E |-0------------|

Main 3x

G |-------------|---|---------|
D |-------------|---|---------|
A |---0-4-4-5-0-|-5-|-3-------|
E |-0-----------|---|---2h3-3-|

Main 2x (with alt end)

G |---|----------|
D |---|----------|
A |-5-|-3--------|
E |---|----2233--|

Main 3x

Slap riff

Main 3x

Transition riff

Main 3x

Slap riff

Main 8x (with alt end)

Chorus
G ||---|---|--------|---------||
D ||---|---|--------|---------||
A ||-5-|-3-|--------|----2233-||
E ||---|---|-5--55-5|3-3------||

Main 3x

Slap riff

Main 7x

Transition riff

Main 8x (with alt end)


Chorus

Alternate main
      HH   H = harmonic
G ||-------5-6-||
D ||--------5--||
A ||---5h7-----||
E ||-0---------||  3x

Alternate transition
G |-------------|
D |-------------|
A |---5h7-4-5-6-|
E |-0-----------|

Alternate main 3x

Alternate transition

Alternate main 3x

Alternate transition

Alternate main 11x

G |--------|
D |--------|
A |-55-5-6-|
E |--------|

Main 7x

Transition

Main 8x (with alt end)


Chorus  2x

Almost there ...

Sign in to get your own page with links to favourite songs and more. You are just one click away...

Login with Facebook Login with Google