Log in

One click and you are in

Login with Facebook Login with Google

Why sign up and log in

Guitar Tabs Explorer
Duran Duran bass tabs for New moon on monday

Bass tabs

Tuning: E A D G

p = pop note
. = accent note
s = sixteenth note

VERSE 1                   p     p
|--------|--------|--------|--------|-------5--|---------|--------|---------|
|--------|--------|--------|--------|----------|------7--|--------|---------|
|3-3--3--|--------|3-3--3--|--------|3-3-0h3---|---------|---2-3-5|--.7-75-2|
|--------|5-5--5--|--------|5-5--5--|----------|5-5-05---|3-------|0-0-0----|

|-------5--|----------|-------5--|----------|
|----------|-------7--|----------|-------7-7|
|3-3-0h3---|----------|3-3-0h3---|----------|
|----------|5-5-0h5---|----------|5-5-0h5---|

|-------5--|----------|--------|---------|
|----------|-------7--|--------|---------|
|3-3-0h3---|----------|---2-3-5|--.7-75-2|
|----------|5-5-0h5---|3-------|0-0-0----|

|-------5--|----------|-------5--|----------|
|----------|-------7--|----------|-------7-7|
|3-3-0h3---|----------|3-3-0h3---|----------|
|----------|5-5-0h5---|----------|5-5-0h5---|

|-------5--|---------|---------|---------|
|----------|---------|---------|------3-4|
|3-3-0h3---|---------|-ss------|-ss------|
|----------|5-5-55553|333333311|000001-2-|


CHORUS 1
|---------|------7-8|---------|---------|
|------5-6|---------|-ss------|-ss------|
|-ss------|-ss--5-6-|777777755|33333----|
|333333-4-|55555----|---------|-----0010|

|---------|------7-8|----------|-----------|
|------5-6|---------|-ssss-----|-ss--ssss--|
|-ss------|-ss--5-6-|7777777755|3333333333-|
|333333-4-|55555----|----------|----------2|

|---------|------7-8|---------|---------|
|------5-6|---------|-ss------|-ss------|
|-ss------|-ss--5-6-|777777755|33333----|
|333333-4-|55555----|---------|-----0010|

|---------|------7-8|----------|-----------|
|------5-6|---------|-ssss-----|-ss--ssss--|
|-ss------|-ss--5-6-|7777777755|33333333332|
|333333-4-|55555----|----------|-----------|

BRIDGE 1
|--------|--------|--------|--------|
|--------|--------|--------|--------|
|3-------|--------|3-------|3-------|
|--------|3-------|--------|----1120|


VERSE 2
|-----5--|--------|--------|--------|-------5--|---------|--------|---------|
|--------|--------|--------|--------|----------|------7--|--------|---------|
|3-3-----|--------|3-3--3--|--------|3-3-0h3---|---------|---2-3-5|--.7-75-2|
|--------|5-5--5--|--------|5-5--5--|----------|5-5-05---|3-------|0-0-0----|

|-------5--|----------|-------5--|----------|
|----------|-------7--|----------|-------7-7|
|3-3-0h3---|----------|3-3-0h3---|----------|
|----------|5-5-0h5---|----------|5-5-0h5---|

|-------5--|---------|---------|---------|
|----------|---------|---------|------3-4|
|3-3-0h3---|----.----|-ss------|-ss------|
|----------|5-5-55553|333333311|000001-2-|


CHORUS 2
|---------|------7-8|----------|----------|
|------5-6|---------|-ssss-----|-ss-ss----|
|-ss------|-ss--5-6-|7777777755|333333----|
|333333-4-|55555----|----------|------0010|

|---------|------7-8|----------|-----------|
|------5-6|---------|-ssss-----|-ss--ssss--|
|-ss------|-ss--5-6-|7777777755|3333333333-|
|333333-4-|55555----|----------|----------2|

|---------|------7-8|----------|---------|
|------5-6|---------|-ssss-----|-ss------|
|-ss------|-ss--5-6-|7777777755|33333----|
|333333-4-|55555----|----------|-----0010|

|---------|------7-8|----------|-----------|
|------5-6|---------|-ssss-----|-ss--ssss--|
|-ss------|-ss--5-6-|7777777755|33333333332|
|333333-4-|55555----|----------|-----------|


BRIDGE 2
|--------|--------|--------|--------|---5---5-|---3---3-|---5---5-|--5----5-|
|--------|--------|--------|--------|--.-..---|--.-..---|--.-..---|---------|
|3-------|--------|3-3--3--|3-3-----|3-3-33---|1-1-11---|3-3-33---|3---33---|
|--------|3-------|-------3|----1120|---------|---------|---------|---------|

|---.-----|---3---3-|---------|---------|
|---5---5-|--.-..---|-ss------|-ss------|
|--.-..---|1-1-11---|33333333-|33333----|
|3-3-33---|---------|---------|-----0010|


CHORUS 3

|---------|------7-8|----------|----------|
|------5-6|---------|-ssss-----|-ss-ss----|
|-ss------|-ss--5-6-|7777777755|333333----|
|333333-4-|55555----|----------|------0010|

|---------|------7-8|----------|-----------|
|------5-6|---------|-ssss-----|-ss--ssss--|
|-ss------|-ss--5-6-|7777777755|3333333333-|
|333333-4-|55555----|----------|----------2|

|---------|------7-8|----------|---------|
|------5-6|---------|-ssss-----|-ss------|
|-ss------|-ss--5-6-|7777777755|33333----|
|333333-4-|55555----|----------|-----0010|

|---------|------7-8|----------|-----------|
|------5-6|---------|-ssss-----|-ss--ssss--|
|-ss------|-ss--5-6-|7777777755|33333333332|
|333333-4-|55555----|----------|-----------|

|---------|------7-8|----------|---------|
|------5-6|---------|-ssss-----|-ss------|
|-ss------|-ss--5-6-|7777777755|33333----|
|333333-4-|55555----|----------|-----0010|

|---------|------7-8|----------|---------|
|------5-6|---------|-ssss-----|-ss------|
|-ss------|-ss--5-6-|7777777755|33333----|
|333333-4-|55555----|----------|-----0010|

Almost there ...

Sign in to get your own page with links to favourite songs and more. You are just one click away...

Login with Facebook Login with Google