Log in

One click and you are in

Login with Facebook Login with Google

Why sign up and log in

Guitar Tabs Explorer
Duran Duran bass tabs for My own way

Bass tabs

Tuning: Standard (E A D G)



Intro - 0:00

G|----|
D|----|
A|----|
E|----|
Intro - 0:02

G|----------------|----|-----------------|-----------|
D|----------------|----|-----------------|-----------|
A|-00-22-33-4-x5--|----|-x00-22-33-4-x5--|-/12\/15\--|
E|----------------|----|-----------------|-----------|

G|----------------|-------------|--------|-----4--5-|
D|----------------|-------------|--------|----------|
A|-x00-22-33-4-x5-|-x5-33-------|-5--5-4-|-3--------|
E|----------------|------22-33--|--------|---x2--3--|


Verse 1 - 0:15

G|----------------|----|-----------------|-----------|
D|----------------|----|-----------------|-----------|
A|-00-22-33-4-x5--|----|-x00-22-33-4-x5--|-/12\/15\--|
E|----------------|----|-----------------|-----------|

G|----------------|-------------|--------|-----4--5-|
D|----------------|-------------|--------|----------|
A|-x00-22-33-4-x5-|-x5-33-------|-5--5-4-|-3--------|  TWO times
E|----------------|------22-33--|--------|---x2--3--|

Chorus - 0:41

G|-----------|------7--8-|
D|-----------|-----------|
A|-----------|-----5--6--|  TWO times
E|-0-0-0-x23-|-5-5-------|

G|-----------|------7--6-|------5-5-|------7-7-|
D|-----------|-----------|----------|----------|
A|-----------|-----5--4--|-3-3-3-3--|-5-5-5-5--|
E|-0-0-0-x23-|-5-5-------|----------|----------|

G|-----------|------7--8-|
D|-----------|-----------|
A|-----------|-----5--6--|  TWO times
E|-0-0-0-x23-|-5-5-------|

G|-----------|------7--6-|------5-5-|----------------|
D|-----------|-----------|----------|----------------|
A|-----------|-----5--4--|-3-3-3-3--|-5-----/12\/15\-|
E|-0-0-0-x23-|-5-5-------|----------|----------------|


Intro 2 - 1:08

G|----------------|-------------|
D|----------------|-------------|
A|-x00-22-33-4-x5-|-x5-33-------|  THREE times
E|----------------|------22-33--|

G|----------------|-------------|--------|-----4--5-|
D|----------------|-------------|--------|----------|
A|-x00-22-33-4-x5-|-x5-33-------|-5--5-4-|-3--------|
E|----------------|------22-33--|--------|---x2--3--|


Verse 2 - 1:21

G|----------------|----|-----------------|-----------|
D|----------------|----|-----------------|-----------|
A|-00-22-33-4-x5--|----|-x00-22-33-4-x5--|-/12\/15\--|
E|----------------|----|-----------------|-----------|

G|----------------|-------------|--------|-----4--5-|
D|----------------|-------------|--------|----------|
A|-x00-22-33-4-x5-|-x5-33-------|-5--5-4-|-3--------|  TWO times
E|----------------|------22-33--|--------|---x2--3--|


Chorus - 1:47

G|-----------|------7--8-|
D|-----------|-----------|
A|-----------|-----5--6--|  TWO times
E|-0-0-0-x23-|-5-5-------|

G|-----------|------7--6-|------5-5-|------7-7-|
D|-----------|-----------|----------|----------|
A|-----------|-----5--4--|-3-3-3-3--|-5-5-5-5--|
E|-0-0-0-x23-|-5-5-------|----------|----------|

G|-----------|------7--8-|
D|-----------|-----------|
A|-----------|-----5--6--|  TWO times
E|-0-0-0-x23-|-5-5-------|

G|-----------|------7--6-|------5-5-|------7-7-|
D|-----------|-----------|----------|----------|
A|-----------|-----5--4--|-3-3-3-3--|-5-5-5-5--|
E|-0-0-0-x23-|-5-5-------|----------|----------|


Bridge - 2:14

G|-------|
D|-------|
A|-------|  THREE times
E|-0--0--|

G|--------------|
D|--------------|
A|-33333-5-5-5--|
E|--------------|


Bridge - 2:21

G|----------------|-----------------|
D|----------------|-----------------|
A|----------------|-----------------|
E|-00-22-33-4-x5--|-x00-22-33-4-x5--|

G|-----------------|-------------|---------5-|---------|
D|-----------------|-------------|-----------|---------|
A|-----------------|-------------|-3-3-3-3---|-5-5-5-5-|
E|-x00-22-33-4-x5--|-x5-33-22-33-|-----------|---------|

G|----------------|-------|----------------|-------|
D|----------------|-------|----------------|-------|
A|-00-22-33-4-x5--|--15\--|-00-22-33-4-x5--|--12\--|
E|----------------|-------|----------------|-------|

G|----------------|-------------|----------|----------|
D|----------------|-------------|----------|----------|
A|-x00-22-33-4-x5-|-x5-33-------|----------|----------|
E|----------------|------22-33--|-11111111-|-33333333-|


Chorus - 2:47

G|----------------|-------------|----------------|-------------|
D|----------------|-------------|----------------|-------------|
A|----------------|-------------|----------------|-------------|
E|-00-22-33-4-x5--|-x5-33-22-33-|-00-22-33-4-x5--|-x5-33-22-33-|

G|----------------|-------------|-----------|----------|
D|----------------|-------------|-----------|----------|
A|----------------|-------------|-333333333-|-55555555-|  FOUR times
E|-00-22-33-4-x5--|-x5-33-22-33-|-----------|----------|


************************************

| x Dead note
| / Slide up
| \ Slide down


************************************

Almost there ...

Sign in to get your own page with links to favourite songs and more. You are just one click away...

Login with Facebook Login with Google