Log in

One click and you are in

Login with Facebook Login with Google

Why sign up and log in

Guitar Tabs Explorer
Duran Duran bass tabs for My antarctica

Bass tabs

Verse
G|--------------------|-----------------|-----------------------|-----------------|
D|--------------------|-----------------|-----------------------|-----------------|
A|33-1-33-1-33-1-33-00|-----------------|00-33-1-33-1-33-1-33-00|-----------------|
E|--------------------|33-1-33-1-33-1-33|-----------------------|33-1-33-1-33-1-33|

G|--------------------|-----------------|------------------------|-----------------|
D|--------------------|-----------------|------------------------|-----------------|
A|33-1-33-1-33-1-33-00|-----------------|00-33-1-33-1-33-1-33-531|-----------------|
E|--------------------|33-1-33-1-33-1-33|------------------------|33-1-33-1-33-1-33|

G|--------------------|-----------------|------------------------|-----------------|
D|--------------------|-----------------|------------------------|-----------------|
A|33-1-33-1-33-1-33-00|-----------------|00-33-1-33-1-33-1-33-531|-----------------|
E|--------------------|33-1-33-1-33-1-33|------------------------|33-1-33-1-33-1-33|
Chorus
G|-----------------|-----------------------|-----------------|-----------------------|
D|-----------------|-----------------------|-----------------|-----------------------|
A|66-66--88-88-----|-----------------------|66-66--88-88-----|-----------------------|
E|--6------8-------|33-0-33-0-33-0-33-0-33-|--6------8-------|33-0-33-0-33-0-33-0-33-|


Verse
G|----------------------|-----------------|-----------------------|-----------------|
D|----------------------|-----------------|-----------------------|-----------------|
A|33-1-33-1-33-1-33-531-|-----------------|00-33-1-33-1-33-1-33-00|-----------------|
E|----------------------|33-1-33-1-33-1-33|-----------------------|33-1-33-1-33-1-33|

G|--------------------|-----------------|------------------------|-----------------|
D|--------------------|-----------------|------------------------|-----------------|
A|33-1-33-1-33-1-33-00|-----------------|00-33-1-33-1-33-1-33-531|-----------------|
E|--------------------|33-1-33-1-33-1-33|------------------------|33-1-33-1-33-1-33|

Chorus
G|-----------------|-----------------------|-----------------|-----------------------|
D|-----------------|-----------------------|-----------------|-----------------------|
A|66-66--88-88-----|-----------------------|66-66--88-88-----|-----------------------|
E|--6------8-------|33-0-33-0-33-0-33-0-33-|--6------8-------|33-0-33-0-33-0-33-0-33-|

G|-----------------|-----------------------|-----------------|-----------------------|
D|-----------------|-----------------------|-----------------|-----------------------|
A|66-66--88-88-----|-----------------------|66-66--88-88-----|-----------------------|
E|--6------8-------|33-0-33-0-33-0-33-0-33-|--6------8-------|33-0-33-0-33-0-33-0-33-|


Verse
G|----------------------|-----------------|-----------------------|-----------------|
D|----------------------|-----------------|-----------------------|-----------------|
A|33-1-33-1-33-1-33-531-|-----------------|00-33-1-33-1-33-1-33-00|-----------------|
E|----------------------|33-1-33-1-33-1-33|-----------------------|33-1-33-1-33-1-33|

G|--------------------|-----------------|------------------------|-----------------|
D|--------------------|-----------------|------------------------|-----------------|
A|33-1-33-1-33-1-33-00|-----------------|00-33-1-33-1-33-1-33-531|-----------------|
E|--------------------|33-1-33-1-33-1-33|------------------------|33-1-33-1-33-1-33|

Interlude
G|-----------------|-----------------|-----------------|
D|-----------------|-----------------|-----------------|
A|-6~--------------|-8~--------------|-----------------|
E|-----------------|-----------------|-033---033-------|

G|-----------------|-----------------|-----------------|
D|-----------------|-----------------|-----------------|
A|-6~--------------|-8~--------------|-----------------|
E|-----------------|-----------------|-033---033-------|


Outro
G|-----------------|-----------------------|-----------------|-----------------------|
D|-----------------|-----------------------|-----------------|-----------------------|
A|66-66--88-88-----|-----------------------|66-66--88-88-----|-----------------------|
E|--6------8-------|33-0-33-0-33-0-33-0-33-|--6------8-------|33-0-33-0-33-0-33-0-33-|

G|-----------------|-----------------------|-----------------|-----------------------|
D|-----------------|-----------------------|-----------------|-----------------------|
A|66-66--88-88-----|-----------------------|66-66--88-88-----|-----------------------|
E|--6------8-------|33-0-33-0-33-0-33-0-33-|--6------8-------|33-0-33-0-33-0-33-0-33-|


************************************

| ~ Vibrato

************************************

Almost there ...

Sign in to get your own page with links to favourite songs and more. You are just one click away...

Login with Facebook Login with Google