Log in

One click and you are in

Login with Facebook Login with Google

Why sign up and log in

Guitar Tabs Explorer
Duran Duran bass tabs for Lonely in your nightmare

Lonely In Your Nightmare bass tab by Duran Duran

Duran Duran bass tabs for Lonely in your nightmare

Bass tabs with lyrics

Difficulty: Beginner


Standard tuning: E-A-D-G

            00:21

G |-----------------|---10h9--10h9----|-----------------|---10h9--10h12\\-|
D |-----------------|-----------------|-----------------|-----------------|
A |-----------------|-----------------|-----------------|-----------------|
E |-----------------|-----------------|-----------------|-----------------|
  1 & 2 & 3 & 4 &  1 & 2 & 3 & 4 &  1 & 2 & 3 & 4 &  1 & 2 & 3 & 4 &

G |-----------------|---10h9--10h9----|-----------------|-----------------|
D |-----------------|-----------------|-----------------|-----------------|
A |-----------------|-----------------|-----------------|-----------------|
E |-----------------|-----------------|-----------------|-----------------|
  1 & 2 & 3 & 4 &  1 & 2 & 3 & 4 &  1 & 2 & 3 & 4 &  1 & 2 & 3 & 4 &

G |-----------------|---10h9--10h9----|-----------------|---10h9--10h12\\-|
D |-----------------|-----------------|-----------------|-----------------|
A |-----------------|-----------------|-----------------|-----------------|
E |-----------------|-----------------|-----------------|-----------------|
  1 & 2 & 3 & 4 &  1 & 2 & 3 & 4 &  1 & 2 & 3 & 4 &  1 & 2 & 3 & 4 &

G |-----------------|---10h9--10h9----|-----------------|-----------------|
D |-----------------|-----------------|-----------------|-----------------|
A |-----------------|-----------------|-----------------|-----------------|
E |-----------------|-----------------|-----------------|-----------------|
  1 & 2 & 3 & 4 &  1 & 2 & 3 & 4 &  1 & 2 & 3 & 4 &  1 & 2 & 3 & 4 &


  00:47
G |-----------------|
D |-----------------|
A |-5-7-------------|
E |-----------------|
  1 & 2 & 3 & 4 &

   00:54 Chorus
G |-----------------|-----------------|-----------------|-----------------|
D |-7---5-4---------|-5---4-----------|-----------------|-----------------|
A |-----------7---7-|-------7-5-----5-|-----------------|-----------------|
E |-----------------|-----------------|-5---------------|-----------------|
  1 & 2 & 3 & 4 &  1 & 2 & 3 & 4 &  1 & 2 & 3 & 4 &  1 & 2 & 3 & 4 &

G |-----------------|-----------------|-----------------|-----------------|
D |-9---5-4---------|-5---4-----------|-----------------|-----------------|
A |-----------7---7-|-------7-5-----5-|-----------------|-----------------|
E |-----------------|-----------------|-5---------------|-----------------|
  1 & 2 & 3 & 4 &  1 & 2 & 3 & 4 &  1 & 2 & 3 & 4 &  1 & 2 & 3 & 4 &

  Verse II

G |-----------7-----|---10h9--10h9----|-----------7-----|---10h9--10h12\\-|
D |-----------------|-----------------|-----------------|-----------------|
A |-5-----3-5-------|---------------3-|-5-----3-5-------|-----------------|
E |-----------------|-----------------|-----------------|-----------------|
  1 & 2 & 3 & 4 &  1 & 2 & 3 & 4 &  1 & 2 & 3 & 4 &  1 & 2 & 3 & 4 &

G |-----------7-----|---10h9--10h9----|-----------------|-----------------|
D |-----------------|-----------------|-----------------|-----------------|
A |-5-----3-5-------|-----------------|---------------5-|-7-----------7---|
E |-----------------|---------------5-|-7-----5-7-------|-----------79----|

  1 & 2 & 3 & 4 &  1 & 2 & 3 & 4 &  1 & 2 & 3 & 4 &  1 & 2 & 3 & 4 &

G |-----------7-----|---10h9--10h9----|-----------7-----|---10h9--10h12\\-|
D |-----------------|-----------------|-----------------|-----------------|
A |-5-----3-5-------|---------------3-|-5-----3-5-------|-----------------|
E |-----------------|-----------------|-----------------|-----------------|
  1 & 2 & 3 & 4 &  1 & 2 & 3 & 4 &  1 & 2 & 3 & 4 &  1 & 2 & 3 & 4 &

G |-----------7-----|---10h9--10h9----|-----------------|-----------------|
D |-----------------|-----------------|-----------------|-----------------|
A |-5-----3-5-------|-----------------|---------------5-|-7---------------|
E |-----------------|---------------5-|-7-----5-7-------|-----------------|

  1 & 2 & 3 & 4 &  1 & 2 & 3 & 4 &  1 & 2 & 3 & 4 &  1 & 2 & 3 & 4 &

  01:36 Break

G |-----------------|-----------------|-----------------|-----------------|
D |11---9-7-6-----6-|-5---4-2-0-----0-|-----------------|-----------------|
A |-----------------|-----------------|-0---------------|-----------------|
E |-----------------|-----------------|-----------------|-----------------|
  1 & 2 & 3 & 4 &  1 & 2 & 3 & 4 &  1 & 2 & 3 & 4 &  1 & 2 & 3 & 4 &

  01:43 Repeat Chorus

  01:58 Fill

G |------------8------7h8|h9----------------|
D |-------8h10-----------|------------------|
A |-8--------------------|------------------|
E |----------------------|------------------|
  1 & 2 &  3 & 4 &  1 & 2 & 3 & 4 &

G |------------8------7h8|h9----------------|
D |-------8h10-----------|------------------|
A |-8--------------------|------------------|
E |----------------------|------------------|
  1 & 2 &  3 & 4 &  1 & 2 & 3 & 4 &


G |------------8------7h8|h9----------------|-----------------|------------------|
D |-------8h10-----------|-------------8h7--|5-----------5-//-|12----------------|
A |-8--------------------|------------------|-----------------|------------------|
E |----------------------|------------------|-----------------|------------------|
  1 & 2 &  3 & 4 &  1 & 2 & 3 & 4 &  1 & 2 & 3 & 4 &  1 & 2 & 3 & 4 &

 Verse III

G |-----------------|-----------------|-----------------|-----------------|
D |-----------------|-----------------|-----------------|-----------------|
A |-5---3-2---------|---------3-----3-4h5---3-2---------|---------3-------|
E |---------5-----5-|-3-----3---------|---------5-----5h6-3-----3---------|

  1 & 2 & 3 & 4 &  1 & 2 & 3 & 4 &  1 & 2 & 3 & 4 &  1 & 2 & 3 & 4 &
G |-----------------|-----------------|-----------------|-------------------|
D |-----------------|-----------------|-----------------|-------------------|
A 4h5---3-2---------|---------3-------|---------------5-|-7-------------7---|
E |---------5-----5-|-3-----3-------5-|-7-----5-7-------|-----------7h9-----|

  1 & 2 & 3 & 4 &  1 & 2 & 3 & 4 &  1 & 2 & 3 & 4 &  1 & 2 & 3 &  4 &

G |-----------------|-----------------|-----------------|-----------------|
D |-----------------|-----------------|-----------------|-----------------|
A |-5---3-2---------|---------3-----3-4h5---3-2---------|---------3---3-4-|
E |---------5-----5-|-3-----3---------|---------5-----5-|-3-----3---------|

  1 & 2 & 3 & 4 &  1 & 2 & 3 & 4 &  1 & 2 & 3 & 4 &  1 & 2 & 3 & 4 &
G |-----------------|-----------------|-----------------|-------------------|
D |-----------------|-----------------|-----------------|-------------------|
A |45---3-2---------|---------3-------|---------------5-|-7-----5-7-------5-|
E |---------5-----5-|-3-----3-------5-|-7-----5-7-------|-------------------|

  1 & 2 & 3 & 4 &  1 & 2 & 3 & 4 &  1 & 2 & 3 & 4 &  1 & 2 & 3 &  4 &

G |-----------------|-----------------|-----------------|-----------------|
D |-----------------|-----------------|-----------------|-----------------|
A |-7-------------3-|-5---------------|-----------------|-----------------|
E |-----------------|---------------3-|-5-------------3-|-5---------------|

  1 & 2 & 3 & 4 &  1 & 2 & 3 & 4 &  1 & 2 & 3 & 4 &  1 & 2 & 3 & 4 &

G |-----------------|-----------------|-----------------|-----------------|
D |-7---5-4---------|-5---4-----------|-----------------|-----------------|
A |-----------7---7-|-------7-5-----5-|-----------------|-----------------|x3
E |-----------------|-----------------|-5-----5-5-----5-|-5-----5-5-------|
  1 & 2 & 3 & 4 &  1 & 2 & 3 & 4 &  1 & 2 & 3 & 4 &  1 & 2 & 3 & 4 &

G |-----------------|-----------------|-----------------|-----------------|
D |11---9-7-6-----6-|-5---4-----------|-----------------|-----------------|
A |-----------------|-------7-5-----5-|-----------------|-----------------|
E |-----------------|-----------------|-5-----5-5-----5-|-5-----5-5-------|
  1 & 2 & 3 & 4 &  1 & 2 & 3 & 4 &  1 & 2 & 3 & 4 &  1 & 2 & 3 & 4 &

G |-----------------|-----------------|-----------------|-------------------|
D |-7---5-4---------|-5---4-----------|-----------------|-------------------|
A |-----------7---7-|-------7-5-----5-|-----------------|-------------------|
E |-----------------|-----------------|-5-----5-5-----5-|-5-----5-6-6-8-8/10|
  1 & 2 & 3 & 4 &  1 & 2 & 3 & 4 &  1 & 2 & 3 & 4 &  1 & 2 & 3 & 4 &

G |-----------------|-----------------|-----------------|-----------------|
D |-7---5-4---------|-5---4-----------|-----------------|-----------------|
A |-----------7---7-|-------7-5-----5-|-----------------|-----------------|
E |-----------------|-----------------|-5-----5-5-----5-|-5-----2-3-3-5-5-|
  1 & 2 & 3 & 4 &  1 & 2 & 3 & 4 &  1 & 2 & 3 & 4 &  1 & 2 & 3 & 4 &

G |-----------------|-----------------|-----------------|-----------------|
D |-7---5-4---------|-5---4-----------|-----------------|---9---10--11--12|
A |-----------7---7-|-------7-5-----5-|-----------------|-----------------|
E |-----------------|-----------------|-5-----5-5-----5-|-7---8---9---10--|
  1 & 2 & 3 & 4 &  1 & 2 & 3 & 4 &  1 & 2 & 3 & 4 &  1 & 2 & 3 & 4 &

G |-----------------|-----------------|-----------------|-----------------|
D |-7-----7--7----7-|-7-----7-7-////--|-----------------|-----------------|
A |-----------------|-----------------|-----------------|-----------------|
E |-----------------|-----------------|-5-----5-5-----5-|-5-----5-5-------|
  1 & 2 & 3 & 4 &  1 & 2 & 3 & 4 &  1 & 2 & 3 & 4 &  1 & 2 & 3 & 4 &

Almost there ...

Sign in to get your own page with links to favourite songs and more. You are just one click away...

Login with Facebook Login with Google