Log in

One click and you are in

Login with Facebook Login with Google

Why sign up and log in

Guitar Tabs Explorer
Duran Duran bass tabs for Khanada (1981 live version)

Bass tabs

Tuning: Standard tuning


Tabbed by: bassm99
E-mail: alanmatthews1966@yahoo.co.uk

"Khanada (1981 Live Version)" From the album "BBC In Concert: Hammersmith
Odeon 17th December 1981" (2010)
Written by Duran Duran
Intro:

G|--------------------------------------------------------------------------|
D|-----------------5430-------------------------------------5430------------|
A|--567--567--345-------------056-7777--056-7777--034-5555-------(x2)--5/---|
E|-----5----5----3------(x2)------------------------------------------------|


Verse:

G|--------------------------------------------------------------------------|
D|-----------------5430-------------------------------------5430------------|
A|--567--567--345-------------056-7777--056-7777--034-5555-------(x2)-------|
E|-----5----5----3------(x2)------------------------------------------------|


Chorus:

G|---7---5--------------7---5----------543----------------------------------|
D|-----------5-5----------------5-5-5-----32--------------------------------|
A|--5---3--------------5---3------------------------------------------------|
E|----------3-3--(x3)----------3-3-3----------------------------------------|


Intro: (Play Twice)

G|--------------------------------------------------------------------------|
D|-----------------5430-----------------------------------------------------|
A|--567--567--345-----------------------------------------------------------|
E|-----5----5----3----------------------------------------------------------|

Verse:

G|--------------------------------------------------------------------------|
D|--------------------------------5430----------------------5430------------|
A|--056-7777--056-7777--034-5555-------(x2)--567--567--345-------------5/---|
E|----------------------------------------------5----5----3------(x2)-------|

Repeat Chorus:


Ending:

G|--------------------------------------------------------------------------|
D|--------------------------------------------------------------------------|
A|--00-00-00-00-00-00-00-----------00-00-00------------0--------------------|
E|-----------------------023-(x4)-----------023-(x13)-----023-(x4)----------|

G|--------------------------------------------------------------------------|
D|--------------------------------------------------------------------------|
A|--------------------------------------------------------------------------|
E|--5--023-(x1)--005-005-(x3)-----------------------------------------------|

End:

G|--9-----------------------------------------------------------------------|
D|--------------------------------------------------------------------------|
A|--------------------------------------------------------------------------|
E|---0----------------------------------------------------------------------|

Other versions of Khanada

KhanadaBass tabs

Almost there ...

Sign in to get your own page with links to favourite songs and more. You are just one click away...

Login with Facebook Login with Google