Log in

One click and you are in

Login with Facebook Login with Google

Why sign up and log in

Guitar Tabs Explorer
Duran Duran bass tabs for I dont want your love

I Don't Want Your Love bass tab by Duran Duran

Duran Duran bass tabs for I dont want your love

Bass tabs

Tabbed by: zowie54@gmail.com

(00:00) x2 (01:02) x2 (02:04) x4
  D
G ------------------------------------------------|
D ------------------------------------------------|
A --35--303----2x2--3x3----35--303----2x2--3------|
E ------------------------------------------------|

(00:10) x4 (01:12) x4 (02:22) x4
   D
G -------------------------------------------------------|
D -------------------------------------------------------|
A ---55-5-------5-55---------5-55-------5-55-------------|
E -------------------------------------------------------|

(00:44) x2 (01:28)x4 (02:39)X8
  G
G ---7-5-----------------5-3----------------------------------|
D -------7-------------------5----------------5-3-------------|
A -5-------5--55-5-----3-------3--33-3------------5-----------|
E ------------------------------------------3--------3---33-3-|

G---------------------------|
D------5-3------------------|
A-----------5---------------|

Almost there ...

Sign in to get your own page with links to favourite songs and more. You are just one click away...

Login with Facebook Login with Google