Log in

One click and you are in

Login with Facebook Login with Google

Why sign up and log in

Guitar Tabs Explorer
Duran Duran tabs for Hungry like the wolf

Guitar tabs

Duran Duran: Hungry Like The Wolf


Intro/Main Riff/Verse:

 sl.                          po.
-----------||---0--0-------------------||
-----------||---0--0-------------------||
-----------||o---------2-1---2--1-----o||
-----------||o-------------2------2---o||
-----------||--------------------------||
-12\--(0)--||--------------------------||

Repeat main riff 4x at first, and 2x's
thereafter per verse (w/o opening slide), and
then go to an open A chord diagramD MajorD chord.
"Do-do-do-do-do..."          po.
---2-----------0--0--------------------||
---3-----------0--0--------------------||
---2------------------2-1---2--1-------||
---0----------------------2------2-----||
---------------------------------------||
---------------------------------------||


Chorus:

(A chord diagramC majorC)             (A chord diagramG+G)
In touch with...

(A chord diagramFF)
I'm on a hunt...

(A chord diagramC majorC)             (A chord diagramG+G)
Smell like I...

(A chord diagramFF)                (A chord diagramD MajorD)
And I'm hungry like...

(A chord diagramC majorC)                 (A chord diagramG+G)
Straddle the line...

(A chord diagramFF)
I'm on a hunt...

(A chord diagramC majorC)              (A chord diagramG+G)
Mouth is alive...

---
Repeat...
---

Notes:
sl. = slide
po. = pull off

Chords:
A chord diagramC majorC X32010
A chord diagramG+G 320033
A chord diagramFF 133211
A chord diagramD MajorD xx0232

Other versions of Hungry Like The Wolf

Hungry like the wolfChords

Almost there ...

Sign in to get your own page with links to favourite songs and more. You are just one click away...

Login with Facebook Login with Google