Log in

One click and you are in

Login with Facebook Login with Google

Why sign up and log in

Guitar Tabs Explorer
Duran Duran bass tabs for Girls on film

Bass tabs with lyrics

Tuning: Standard (E A D G)

Difficulty: Intermediate


Intro - 0:00
 G|------|------|------|------|
4 D|------|------|------|------|
4 A|------|------|------|------|
 E|------|------|------|------|

 G|------|
2 D|------|
4 A|------|
 E|------|
Intro - 0:07
 G|-----------------|--------------|
4 D|-----------4---5-|--------------|
4 A|-0-x0-x0---------|-0-x0-x0------|  THREE times
 E|---------2---3---|--------------|

G|-----------------|---------------|
D|-----------4---5-|---------------|
A|-0-x0-x0---------|-0-x0-x0---12\-|
E|---------2---3---|---------------|

G|-----------------|--------------|
D|-----------4---5-|--------------|
A|-0-x0-x0---------|-0-x0-x0------|  THREE times
E|---------2---3---|--------------|


Intro - 0:33
G|-----------------|----------------|
D|-----------4---5-|------------6h7-|
A|-0-x0-x0---------|-0-x0-x0--------|  EIGHT times
E|---------2---3---|----------------|
                p

Intro - 1:02
G|-----------------|-----------------|
D|-----------4---5-|-----------------|
A|-0-x0-x0---------|-0-x0-x0--2-3--4-|
E|---------2---3---|-----------------|

G|-----------4---5-|-----------4---5-|-----------------|-----------4---5-|
D|-0-x0-x0---------|-0-x0-x0---------|-----------4---5-|-----------------|
A|---------2---3---|---------2---3---|-0-x0-x0---------|-0-x0-x0-2---3---|
E|-----------------|-----------------|---------2---3---|-----------------|

G|-----------4---5-|-----------5---4-|-----------------|-----------4---5-|
D|-0-x0-x0---------|-0-x0-x0---------|-----------4---5-|-----------------|
A|---------2---3---|---------3---2---|-0-x0-x0---------|-0-x0-x0-2---3---|
E|-----------------|-----------------|---------2---3---|-----------------|

G|-----------4---5-|-----------------|-----------------|-----------4---5-|
D|-0-x0-x0---------|-0-x0-x0---4---5-|-----------------|-----------------|
A|---------2---3---|-----------------|-0-x0-x0---------|-0-x0-x0-2---3---|
E|-----------------|---------2---3---|---------2-2-3-3-|-----------------|

G|-----------4---5-|-----------5---4-|-----------------|-------|---------|
D|-0-x0-x0---------|-0-x0-x0---------|-----------4---5-|-------|---------|
A|---------2---3---|---------3---2---|-0-x0-x0---------|-0-----|----/12\-|
E|-----------------|-----------------|---------2---3---|-------|---------|


Verse - 1:37
G|-----------------|-----------4h5-5h6-|-----------------|----------------|
D|-----------4---5-|-0-x0-x0-----------|-----------5---5-|-0-x0-x0--------|
A|-0-x0-x0---------|-------------------|-0-x0-x0---------|----------------|
E|---------2---3---|-------------------|---------3---3---|---------1-2--3-|

G|-----------------|-----------4h5-5h6-|-----------------|----------------|
D|-----------4---5-|-0-x0-x0-----------|-----------5---5-|-0-x0-x0--------|
A|-0-x0-x0---------|-------------------|-0-x0-x0---------|----------------|
E|---------2---3---|-------------------|---------3---3---|---------1-2--3-|

G|-----------------|-----------5---7-|-----------------|------------------|
D|-----------4---5-|-0-x0-x0-3---5---|-----------5---5-|-0-x0-x0---2-3-4--|
A|-0-x0-x0---------|-----------------|-0-x0-x0---------|------------------|
E|---------2---3---|-----------------|---------3---3---|------------------|

G|-----------------|-----------5---7-|-----------------|------------------|-------|
D|-----------4---5-|-0-x0-x0---------|-----------5---5-|-0-x0-x0----------|-------|
A|-0-x0-x0---------|---------3---5---|-0-x0-x0---------|------------------|-0-----|
E|---------2---3---|-----------------|---------3---3---|----------1-2-3-4-|-------|


Chorus - 2:08
G|-----------------|-----------------|-----------------|-----------------|
D|-7-7-----0-x0-x0-|---------0-x0-x0-|-2-2-------------|---4---5---------|
A|-----7-7---------|-2-2-3-3---------|-----3-3-0-x0-x0-|---------0-x0-x0-|
E|-----------------|-----------------|-----------------|-2---3-----------|

G|-----------------|-----------------|-----------------|--------------|
D|-7-7-----0-x0-x0-|---------0-x0-x0-|-2-2-------------|---4---5------|
A|-----7-7---------|-2-2-3-3---------|-----3-3-0-x0-x0-|---------0----|
E|-----------------|-----------------|-----------------|-2---3--------|

 G|-------|
2 D|-------|
4 A|---12\-|
 E|-------|


Verse - 2:23
 G|-----------------|-----------4h5-5h6-|-----------------|----------------|
4 D|-----------4---5-|-0-x0-x0-----------|-----------5---5-|-0-x0-x0--------|
4 A|-0-x0-x0---------|-------------------|-0-x0-x0---------|----------------|
 E|---------2---3---|-------------------|---------3---3---|---------1-2--3-|

G|-----------------|-----------4h5-5h6-|-----------------|----------------|
D|-----------4---5-|-0-x0-x0-----------|-----------5---5-|-0-x0-x0-2-3--4-|
A|-0-x0-x0---------|-------------------|-0-x0-x0---------|----------------|
E|---------2---3---|-------------------|---------3---3---|----------------|

G|-----------------|-----------5---7-|-----------------|------------------|
D|-----------4---5-|-0-x0-x0---------|-----------5---5-|-0-x0-x0----------|
A|-0-x0-x0---------|---------3---5---|-0-x0-x0---------|------------------|
E|---------2---3---|-----------------|---------3---3---|----------1-2-3-4-|

G|-----------------|-----------5---7-|-----------------|------------------|
D|-----------4---5-|-0-x0-x0-3---5---|-----------5---5-|-0-x0-x0---2-3-4--|
A|-0-x0-x0---------|-----------------|-0-x0-x0---------|------------------|
E|---------2---3---|-----------------|---------3---3---|------------------|

G|-----------------|-----------5---7-|-----------------|------------------|-------|
D|-----------4---5-|-0-x0-x0---------|-----------5---5-|-0-x0-x0----------|-------|
A|-0-x0-x0---------|---------3---5---|-0-x0-x0---------|------------------|-0-----|
E|---------2---3---|-----------------|---------3---3---|----------1-2-3-4-|-------|


Chorus - 3:01
G|-----------------|-----------------|-----------------|-----------------|
D|-7-7-----0-x0-x0-|---------0-x0-x0-|-2-2-------------|---4---5---------|
A|-----7-7---------|-2-2-3-3---------|-----3-3-0-x0-x0-|---------0-x0-x0-|
E|-----------------|-----------------|-----------------|-2---3-----------|

G|-----------------|-----------------|-----------------|--------------|
D|-7-7-----0-x0-x0-|---------0-x0-x0-|-2-2-------------|---4---5------|
A|-----7-7---------|-2-2-3-3---------|-----3-3-0-x0-x0-|---------0----|
E|-----------------|-----------------|-----------------|-2---3--------|

 G|-------|
2 D|-------|
4 A|---12\-|
 E|-------|


Bridge - 3:15
 G|---------|---------------|
4 D|---------|---------------|
4 A|-0-0-0-0-|-0-0-------2-3-|  FOUR times
 E|---------|-----x2-x3-----|

G|---------------|-----------------|---------------|-----------------|
D|---------------|-----------4---5-|---------------|-----------------|
A|-0-x0-x0-3-4-5-|-3-x3-x3---------|-0-x0-x0-3-4-5-|-3-x3-x3---------|  TWO times
E|---------------|---------2---3---|---------------|---------1-2-3-4-|


Bridge - 3:45
G|------|------|------|------------|
D|------|------|------|------------|
A|-0----|------|------|------------|  FOUR times
E|------|------|------|----x2-3--4-|

G|---------|---------|---------|------------|
D|---------|---------|---------|------------|
A|-0-0-0-0-|-0-0-0-0-|-0-0-0-0-|-0-0--------|
E|---------|---------|---------|-----x2-3-4-|

G|---------|---------|----------|----------|
D|---------|---------|-77777777-|-77777777-|
A|-0-0-0-0-|-0-0-0-0-|----------|----------|
E|---------|---------|----------|----------|

Coda - 4:27
G|---------------|---------------|---------------|---------------|
D|---------------|---------------|---------------|---------------|
A|-0-0-x0-0-0-x0-|-5-5-x5-5-5-x5-|-0-0-x0--------|-5-5-x5-5-5-x5-|
E|---------------|---------------|--------3-3-x3-|---------------|

G|---------------|---------------|---------------|---------------|
D|---------------|---------------|--------5-5-x5-|--------1-2-3--|
A|-0-0-x0-0-0-x0-|-5-5-x5-5-5-x5-|-0-0-x0--------|-5-5-x5--------|
E|---------------|---------------|---------------|---------------|

G|---------------|---------------|---------------|---------------|
D|---------------|---------------|---------------|--------1-2--3-|
A|-0-0-x0-0-0-x0-|-5-5-x5-5-5-x5-|-0-0-x0--------|-5-5-x5--------|
E|---------------|---------------|--------3-3-x3-|---------------|

G|---------------|---------------|---------------|---------------|
D|---------------|---------------|--------5-5-x5-|--------1-2-3--|
A|-0-0-x0-0-0-x0-|-5-5-x5-5-5-x5-|-0-0-x0--------|-5-5-x5--------|  REPEAT THROUGH FADE
E|---------------|---------------|---------------|---------------|


Key
/ - Slide up
\ - Slide down
h - Hammer on
p - Pop
x - Ghost note


Note - Time signature changes at certain points throughout this song, however they have been
 marked out on this tab. :)

Other versions of Girls On Film

Girls on Film (1979 Demo)Bass tabs

Almost there ...

Sign in to get your own page with links to favourite songs and more. You are just one click away...

Login with Facebook Login with Google