Log in

One click and you are in

Login with Facebook Login with Google

Why sign up and log in

Guitar Tabs Explorer
Duran Duran bass tabs for Fame

Bass tabs

Tabbed By zowie54@gmail.com

  Intro
G| -----------4---|----------------|----------------|----------------|
D| ---------------|----------------|----------------|----------------|
A| 2---------------|----------------|----------------|----------------|
E| ---------------|--------5-5-5-5-|5-5-5-0-3-3-3-3-|3---------------|
  E      B      A       A G
M| 1 & 2 & 3 & 4 & |1 & 2 & 3 & 4 & |1 & 2 & 3 & 4 & |1 & 2 & 3 & 4 & |

G| ---------------|----------------|----------------|----------------|
D| ---------------|---------02-5---|----------------|---------02-5---|
A| ---------------|----------------|----------------|----------------|
E| 0-------0-------|----------------|0------00-------|----------------|
  E    E         DE G  E   EE        DE G
M| 1 & 2 & 3 & 4 & |1 & 2 & 3 & 4 & |1 & 2 & 3 & 4 & |1 & 2 & 3 & 4 & |

G| ---------------|----------------|----------------|----------------|
D| ---------------|----------02-5--|----------------|---------02-5---|
A| ---------------|----------------|----------------|----------------|
E| 0------x0-------|----------------|0------00-------|----------------|

M| 1 & 2 & 3 & 4 & |1 & 2 & 3 & 4 & |1 & 2 & 3 & 4 & |1 & 2 & 3 & 4 & |

G| ---------------|----------------|----------------|----------------|
D| ---------------|-----------02-5-|----------------|-----------02-5-|
A| ---------------|----------------|----------------|----------------|
E| 0---0---0---0---|0---0---0-------|0---0---0---0---|0---0---0-------|

M| 1 & 2 & 3 & 4 & |1 & 2 & 3 & 4 & |1 & 2 & 3 & 4 & |1 & 2 & 3 & 4 & |

G| ---------------|----------------|----------------|----------------|
D| ---------------|-----------02-5-|----------------|-----------02-5-|
A| ---------------|----------------|----------------|----------------|
E| 0---0--00---0---|0---0---0-------|0---0---0---0---|0---------------|

M| 1 & 2 & 3 & 4 & |1 & 2 & 3 & 4 & |1 & 2 & 3 & 4 & |1 & 2 & 3 & 4 & |

 Verse

G| ---------------|----------------|----------------|----------------|
D| ---------------|---------02-5---|----------------|---------02-5---|
A| ---------------|----------------|----------------|----------------|
E| 0------00-------|----------------|0------x0-------|----------------|

M| 1 & 2 & 3 & 4 & |1 & 2 & 3 & 4 & |1 & 2 & 3 & 4 & |1 & 2 & 3 & 4 & |

G| ---------------|----------------|----------------|----------------|
D| ---------------|----------02-5--|----------------|----------------|
A| ---------------|----------------|----------------|----------------|
E| 0------00-------|----------------|0------x0-------|0-0-2-2-3-3-4-4-|
                           E E F#F#G G G#G#
M| 1 & 2 & 3 & 4 & |1 & 2 & 3 & 4 & |1 & 2 & 3 & 4 & |1 & 2 & 3 & 4 & |

G| ---------------|----------------|----------------|----------------|
D| ---------------|-------------5--|----------------|-----------02-5-|
A| ---------------|----------------|----------------|----------------|
E| 5-------5-------|5-------5-------|0------00-------|----------------|

M| 1 & 2 & 3 & 4 & |1 & 2 & 3 & 4 & |1 & 2 & 3 & 4 & |1 & 2 & 3 & 4 & |

  Instrumental
G| ---------------|----------------|----------------|----------------|
D| ---------------|---------02-5---|----------------|---------02-5---|
A| ---------------|----------------|----------------|----------------|
E| 0------00-------|----------------|0------x0-------|----------------|

M| 1 & 2 & 3 & 4 & |1 & 2 & 3 & 4 & |1 & 2 & 3 & 4 & |1 & 2 & 3 & 4 & |

G| ---------------|----------------|
D| ---------------|---------02-5---|
A| ---------------|----------------|
E| 0------00-------|----------------|

M| 1 & 2 & 3 & 4 & |1 & 2 & 3 & 4 & |1 & 2 & 3 & 4 & |1 & 2 & 3 & 4 & |

 Verse II

G| ---------------|----------------|----------------|----------------|
D| ---------------|---------02-5---|----------------|---------02-5---|
A| ---------------|----------------|----------------|----------------|
E| 0------00-------|----------------|0------x0-------|----------------|

M| 1 & 2 & 3 & 4 & |1 & 2 & 3 & 4 & |1 & 2 & 3 & 4 & |1 & 2 & 3 & 4 & |

G| ---------------|----------------|----------------|----------------|
D| ---------------|----------02-5--|----------------|----------------|
A| ---------------|----------------|----------------|----------------|
E| 0------00-------|----------------|0------x0-------|0-0-2-2-3-3-4-4-|

M| 1 & 2 & 3 & 4 & |1 & 2 & 3 & 4 & |1 & 2 & 3 & 4 & |1 & 2 & 3 & 4 & |

G| ---------------|----------------|----------------|----------------|
D| ---------------|-------------5--|----------------|-----------02-5-|
A| ---------------|----------------|----------------|----------------|
E| 5---5---5---5---|5---5---5-------|0-------0-------|0---------------|

M| 1 & 2 & 3 & 4 & |1 & 2 & 3 & 4 & |1 & 2 & 3 & 4 & |1 & 2 & 3 & 4 & |

 Instrumental

G| ---------------|----------------|----------------|----------------|
D| ----------------|-----------02-5-|----------------|-----------02-5-|
A| ---------------|----------------|----------------|----------------|
E| 0-------0-------|0---------------|0-------0-------|0---------------|

M| 1 & 2 & 3 & 4 & |1 & 2 & 3 & 4 & |1 & 2 & 3 & 4 & |1 & 2 & 3 & 4 & |

 Bridge

G| ---------------|----------------|----------------|----------------|
D| ---------------|----------------|----------------|----------------|
A| 7-------7-------|7-------4---5---|7-------7-------|7-------4---5---|
E| ---0-------0---|----0-----------|---0-------0----|----0-----------|

M| 1 & 2 & 3 & 4 & |1 & 2 & 3 & 4 & |1 & 2 & 3 & 4 & |1 & 2 & 3 & 4 & |

G| ---------------|----------------|----------------|----------------|
D| ---------------|----------------|----------------|----------------|
A| 787-----787-----|787-----4---234-|7-------7-------|7-------4---5---|
E| ---0-------0---|----0-----------|---0-------0----|----0-----------|

M| 1 & 2 & 3 & 4 & |1 & 2 & 3 & 4 & |1 & 2 & 3 & 4 & |1 & 2 & 3 & 4 & |


G| ---------------|----------------|----------------|--------------5-|
D| ---------------|----------------|----------------|-----------57---|
A| 7-------7-------|7-------5-5-3-3-|----------------|----------------|
E| ---0-------0---|----0-----------|5-------5-------|5-------5-------|

M| 1 & 2 & 3 & 4 & |1 & 2 & 3 & 4 & |1 & 2 & 3 & 4 & |1 & 2 & 3 & 4 & |

G| ---------------|----------6-----|
D| ---------------|----------------|
A| ---------------|--------4---45--|
E| 0-------0-------|0---0-----------|

M| 1 & 2 & 3 & 4 & |1 & 2 & 3 & 4 & |1 & 2 & 3 & 4 & |1 & 2 & 3 & 4 & |

 Guitar solo - Ending

G| ---------------|----------------|----------------|----------------|
D| 2-2--5--0-0--7--|2-2--5--0-0-1-1-|2-2--5--0-0--7--|2-2--5----------|
A| ---------------|----------------|----------------|--------3-3-4-4-|
E| ---------------|----------------|----------------|----------------|

M| 1 & 2 & 3 & 4 & |1 & 2 & 3 & 4 & |1 & 2 & 3 & 4 & |1 & 2 & 3 & 4 & |

G| ---------------|----------------|----------------|----------------|
D| 2-2--5--0-0--7--|2-2--5--0-0-1-1-|2-2--5--0-0--7--|2-2--5----------|
A| ---------------|----------------|----------------|----------------|
E| ---------------|----------------|----------------|--------3---4---|

M| 1 & 2 & 3 & 4 & |1 & 2 & 3 & 4 & |1 & 2 & 3 & 4 & |1 & 2 & 3 & 4 & |

G| ---------------|----------------|----------------|----------------|
D| 2-2--5--0-0--7--|2-2--5----------|2-2--5--0-0--7--|2-2--5--0-0-1-1-|
A| ---------------|--------3-3-4-4-|----------------|----------------|
E| ---------------|----------------|----------------|----------------|

M| 1 & 2 & 3 & 4 & |1 & 2 & 3 & 4 & |1 & 2 & 3 & 4 & |1 & 2 & 3 & 4 & |


G| ---------------|----------------|----------------|----------------|
D| 2-2--5--0-0---2-|2-2---5-0-0---2-|2-2--5--0-0--7--|2-2--5--0-0-1-1-|
A| ---------------|----------------|----------------|----------------|
E| ---------------|----------------|----------------|----------------|

M| 1 & 2 & 3 & 4 & |1 & 2 & 3 & 4 & |1 & 2 & 3 & 4 & |1 & 2 & 3 & 4 & |

G| ---------------|----------------|----------------|----------------|
D| 2-2--5--0-0--7--|2-2--5--0-0-1-1-|2-2--5--0-0--7--|2-2--5--0-0-1-1-|
A| ---------------|----------------|----------------|----------------|
E| ---------------|----------------|----------------|----------------|

M| 1 & 2 & 3 & 4 & |1 & 2 & 3 & 4 & |1 & 2 & 3 & 4 & |1 & 2 & 3 & 4 & |

G| ---------------|----------------|----------------|----------------|
D| 2-2--5--0-0--7--|2-2--5----------|2-2--5--0-0--7--|2-2--5----------|
A| ---------------|--------4-4-5-5-|----------------|--------4-4-5-5-|
E| ---------------|----------------|----------------|----------------|

M| 1 & 2 & 3 & 4 & |1 & 2 & 3 & 4 & |1 & 2 & 3 & 4 & |1 & 2 & 3 & 4 & |

G| ---------------|----------------|
D| 2-2--5--0-0--7--|2-2--5----------|
A| ---------------|--------3-3-4-4-|
E| ---------------|----------------|

M| 1 & 2 & 3 & 4 & |1 & 2 & 3 & 4 & |1 & 2 & 3 & 4 & |1 & 2 & 3 & 4 & |

Almost there ...

Sign in to get your own page with links to favourite songs and more. You are just one click away...

Login with Facebook Login with Google