Log in

One click and you are in

Login with Facebook Login with Google

Why sign up and log in

Guitar Tabs Explorer
Duran Duran bass tabs for Face for today

Bass tabs

*Synth Bass

VERSES

G |-----------------|-----------------|
D |--7-7----7-7-----|-7-7-----7-7-----|
A |-----------------|-----------------|
E |-----------------|-----------------|

G |-----------------|-----------------|-----------------|-------------|
D |--7-7----7-7-----|-7-7-----7-7-----|-----------------|-------------|
A |-----------------|-----------------|-5-5-----5-5-----|-5-5-----5-5-|
E |-----------------|-----------------|-----------------|-------------|

G |-----------------|-----------------|-----------------|-------------|
D |--7-7----7-7-----|-7-7-----7-7-----|-----------------|-------------|
A |-----------------|-----------------|-5-5-----5-5-----|-5-5-----5-5-|
E |-----------------|-----------------|-----------------|-------------|



CHORUS

G |--------|------------|------------|77-0-55---------|
D |54------|33-0-3>-----|77-0-7>-----|--------0-5-----|
A |--------|------------|------------|----------------|
E |--------|------------|------------|----------------|

G |--------|------------|------------|77-0-55---------|
D |54------|33-0-3>-----|77-0-7>-----|--------0-5-----|
A |--------|------------|------------|----------------|
E |--------|------------|------------|----------------|


VERSES
G |-----------------|-----------------|-----------------|-------------|
D |--7-7----7-7-----|-7-7-----7-7-----|-----------------|-------------|
A |-----------------|-----------------|-5-5-----5-5-----|-5-5-----5-5-|
E |-----------------|-----------------|-----------------|-------------|

G |-----------------|-----------------|-----------------|-------------|
D |--7-7----7-7-----|-7-7-----7-7-----|-----------------|-------------|
A |-----------------|-----------------|-5-5-----5-5-----|-5-5-----5-5-|
E |-----------------|-----------------|-----------------|-------------|



CHORUS

G |--------|------------|------------|77-0-55---------|
D |54------|33-0-3>-----|77-0-7>-----|--------0-5-----|
A |--------|------------|------------|----------------|
E |--------|------------|------------|----------------|

G |--------|------------|------------|77-0-55---------|
D |54------|33-0-3>-----|77-0-7>-----|--------0-5-----|
A |--------|------------|------------|----------------|
E |--------|------------|------------|----------------|

G |--------|------------|------------|77-0-55---------|
D |54------|33-0-3>-----|77-0-7>-----|--------0-5-----|
A |--------|------------|------------|----------------|
E |--------|------------|------------|----------------|

G |--------|------------|------------|77-0-55---------|
D |54------|33-0-3>-----|77-0-7>-----|--------0-5-----|
A |--------|------------|------------|----------------|
E |--------|------------|------------|----------------|


FINAL/OUTRO

G |--------|------------|------------|77-0-55---------|
D |54------|33-0-3>-----|77-0-7>-----|--------0-5-----|
A |--------|------------|------------|----------------|
E |--------|------------|------------|----------------|

G |--------|------------|------------|77-0-55---------|
D |54------|33-0-3>-----|77-0-7>-----|--------0-5-----|
A |--------|------------|------------|----------------|
E |--------|------------|------------|----------------|

G |--------|------------|------------|77-0-55---------|
D |54------|33-0-3>-----|77-0-7>-----|--------0-5-----|
A |--------|------------|------------|----------------|
E |--------|------------|------------|----------------|

G |--------|------------|------------|77-0-55---------|
D |54------|33-0-3>-----|77-0-7>-----|--------0-5-----|
A |--------|------------|------------|----------------|
E |--------|------------|------------|----------------|

Almost there ...

Sign in to get your own page with links to favourite songs and more. You are just one click away...

Login with Facebook Login with Google