Log in

One click and you are in

Login with Facebook Login with Google

Why sign up and log in

Guitar Tabs Explorer
Duran Duran bass tabs for Election day

Bass tabs

Cover of Arcadia


INTRO
00 - 00:15
G |-----------------|-----------------|-----------------|
D |-----------------|-----------------|-----------------|
A |5555-------------|5555-------------|5555-------------|
E |-----------------|-----------------|-----------------|

VERSES (continuous)

G |-----------------|-----------------|-----------------|
D |-----------------|-----------------|-----------------|
A |555--------------|555--------------|555--------------|
E |-----0-----------|-----0-----------|-----0-----------| ...

CHORUS (1:35)

G |----------------------|-----------------|-----------------|
D |----------------------|-----------------|-----------------|
A |022-2-------22-2-2----|555--------------|555--------------|
E |-----00-0-0-------33-3|-----0-----------|-----0-----------|


VERSES (continuous)

G |-----------------|-----------------|-----------------|
D |-----------------|-----------------|-----------------|
A |555--------------|555--------------|555--------------|
E |-----0-----------|-----0-----------|-----0-----------| ...

CHORUS (1:35)

G |----------------------|-----------------|-----------------|
D |----------------------|-----------------|-----------------|
A |022-2-------22-2-2----|555--------------|555--------------|
E |-----00-0-0-------33-3|-----0-----------|-----0-----------|


VERSES (continuous)

G |-----------------|-----------------|-----------------|
D |-----------------|-----------------|-----------------|
A |555--------------|555--------------|555--------------|
E |-----0-----------|-----0-----------|-----0-----------| ...


INTERLUDE (3:03)

G |--------------------------------|--------------------------------|
D |--------------------------------|--------------------------------|
A |022-022-2--------00-000-0-------|022-022-2--------00-000-0-------|
E |---------00-000-0---------33-333|---------00-000-0---------33-333|

G |--------------------------------|--------------------------------|
D |--------------------------------|--------------------------------|
A |022-022-2--------00-000-0-------|022-022-2--------00-000-0-------|
E |---------00-000-0---------33-333|---------00-000-0---------33-333|


VERSES (continuous)

G |-----------------|-----------------|-----------------|
D |-----------------|-----------------|-----------------|
A |555--------------|555--------------|555--------------|
E |-----0-----------|-----0-----------|-----0-----------| ...


CHORUS (3:57)

G |----------------------|-----------------|-----------------|
D |----------------------|-----------------|-----------------|
A |022-2-------22-2-2----|555--------------|555--------------|
E |-----00-0-0-------33-3|-----0-----------|-----0-----------|


VERSES (continuous)

G |-----------------|-----------------|-----------------|
D |-----------------|-----------------|-----------------|
A |555--------------|555--------------|555--------------|
E |-----0-----------|-----0-----------|-----0-----------| ...


FINAL

G |-----------------|-----------------|-----------------|
D |-----------------|-----------------|-----------------|
A |5555-----5-----5-|5555-----5-----5-|5555-----5-----5-|
E |-----------------|-----------------|-----------------|

G |-------7----------|--------7---------|-------7---------|
D |------------------|------------------|-----------------|
A |555-5-------------|555-5-------------|555-5------------|
E |------------------|------------------|-----------------|

Almost there ...

Sign in to get your own page with links to favourite songs and more. You are just one click away...

Login with Facebook Login with Google