Log in

One click and you are in

Login with Facebook Login with Google

Why sign up and log in

Guitar Tabs Explorer
Duran Duran bass tabs for Cinderella ride

Bass tabs

VERSES
G |-----------------|-----------------|-----------------|-----------------|
D |--7-7---7--------|--5-5---5--------|--5-5---5--------|--7-7---7--------|
A |-----------------|-----------------|-----------------|-----------------|
E |5-----5----------|3-----3----------|3-----3----------|5-----5----------|

G |-----------------|-----------------|-----------------|-----------------|
D |--7-7---7--------|--5-5---5--------|--5-5---5--------|--7-7---7--------|
A |-----------------|-----------------|-----------------|-----------------|
E |5-----5----------|3-----3----------|3-----3----------|5-----5----------|

G |-----------------|-----------------|-----------------|-----------------|
D |--7-7---7--------|--5-5---5--------|--5-5---5--------|--7-7---7--------|
A |-----------------|-----------------|-----------------|-----------------|
E |5-----5----------|3-----3----------|3-----3----------|5-----5----------|

G |-----------------|-----------------|-----------------|-----------------|
D |--7-7---7--------|--5-5---5--------|--5-5---5--------|--7-7---7--------|
A |-----------------|-----------------|-----------------|-----------------|
E |5-----5----------|3-----3----------|3-----3----------|5-----5----------|

G |-----------------|-----------------|-----------------|-----------------|
D |--7-7---7--------|--5-5---5--------|--5-5---5--------|--7-7---7--------|
A |-----------------|-----------------|-----------------|-----------------|
E |5-----5----------|3-----3----------|3-----3----------|5-----5----------|


CHORUS
G |--------------|---------------|----------7>--|-----------------|
D |----------8>--|----------7>---|--------------|--------5---7----|
A |--------------|---------------|55-5-55-5-----|-----------------|
E |66-6-66-6-----|55-5-55-5------|--------------|3-33-33---5------|

G |--------------|---------------|----------7>--|-----------|
D |----------8>--|----------7>---|--------------|-----------|
A |--------------|---------------|55-5-55-5-----|55-5-55-5--|
E |66-6-66-6-----|55-5-55-5------|--------------|-----------|

VERSES
G |-----------------|-----------------|-----------------|-----------------|
D |--7-7---7--------|--5-5---5--------|--5-5---5--------|--7-7---7--------|
A |-----------------|-----------------|-----------------|-----------------|
E |5-----5----------|3-----3----------|3-----3----------|5-----5----------|

G |-----------------|-----------------|-----------------|-----------------|
D |--7-7---7--------|--5-5---5--------|--5-5---5--------|--7-7---7--------|
A |-----------------|-----------------|-----------------|-----------------|
E |5-----5----------|3-----3----------|3-----3----------|5-----5----------|

G |-----------------|-----------------|-----------------|-----------------|
D |--7-7---7--------|--5-5---5--------|--5-5---5--------|--7-7---7--------|
A |-----------------|-----------------|-----------------|-----------------|
E |5-----5----------|3-----3----------|3-----3----------|5-----5----------|

G |-----------------|-----------------|-----------------|-----------------|
D |--7-7---7--------|--5-5---5--------|--5-5---5--------|--7-7---7--------|
A |-----------------|-----------------|-----------------|-----------------|
E |5-----5----------|3-----3----------|3-----3----------|5-----5----------|

G |-----------------|-----------------|-----------------|-----------------|
D |--7-7---7--------|--5-5---5--------|--5-5---5--------|--7-7---7--------|
A |-----------------|-----------------|-----------------|-----------------|
E |5-----5----------|3-----3----------|3-----3----------|5-----5----------|


CHORUS
G |--------------|---------------|----------7>--|-----------------|
D |----------8>--|----------7>---|--------------|--------5---7----|
A |--------------|---------------|55-5-55-5-----|-----------------|
E |66-6-66-6-----|55-5-55-5------|--------------|3-33-33---5------|

G |--------------|---------------|----------7>--|-----------|
D |----------8>--|----------7>---|--------------|-----------|
A |--------------|---------------|55-5-55-5-----|55-5-55-5--|
E |66-6-66-6-----|55-5-55-5------|--------------|-----------|

G |--------------|---------------|----------7>--|-----------------|
D |----------8>--|----------7>---|--------------|--------5---7----|
A |--------------|---------------|55-5-55-5-----|-----------------|
E |66-6-66-6-----|55-5-55-5------|--------------|3-33-33---5------|

G |--------------|---------------|----------7>--|-----------|
D |----------8>--|----------7>---|--------------|-----------|
A |--------------|---------------|55-5-55-5-----|55-5-55-5--|
E |66-6-66-6-----|55-5-55-5------|--------------|-----------|

NO BASS: 2:35 - 3:10

FINAL/OUTRO

G |---------|---------|-------|------------|---------|---------|-------|------------|
D |---------|---------|-------|------------|---------|---------|-------|------------|
A |---------|---------|-------|------------|---------|---------|-------|------------|
E |55-5-55-5|55-5-55-5|33-3-33|00-0-00-035-|55-5-55-5|55-5-55-5|33-3-33|00-0-00-035-|

G |---------|---------|-------|------------|---------|---------|-------|------------|
D |---------|---------|-------|------------|---------|---------|-------|------------|
A |---------|---------|-------|------------|---------|---------|-------|------------|
E |55-5-55-5|55-5-55-5|33-3-33|00-0-00-035-|55-5-55-5|55-5-55-5|33-3-33|00-0-00-035-|

Almost there ...

Sign in to get your own page with links to favourite songs and more. You are just one click away...

Login with Facebook Login with Google