Log in

One click and you are in

Login with Facebook Login with Google

Why sign up and log in

Guitar Tabs Explorer
Duran Duran bass tabs for Breath after breath

Bass tabs

John Taylor on bass
4/4 timing
standard tuning, key A minor ()			pedals: none


Intro
G:|--------|--------|--------|--------|--------|--------|--------|--------|
D:|--------|--------|--------|--------|--------|--------|--------|--------|
A:|--------|--------|3>------|2>------|--------|--------|3>------|--------|
E:|6>------|5>------|--------|-------3|6>------|5>------|--------|3>------|
  1 2 3 4 1 2 3 4 1 2 3 4 1 2 3 4 1 2 3 4 1 2 3 4 1 2 3 4 1 2 3 4

G:|--------|--------|--------|--------|--------|--------|--------|--------|
D:|--------|--------|--------|--------|--------|--------|--------|--------|
A:|--------|--------|3>------|2>------|--------|--------|3>------|>-------|
E:|6>------|5>------|--------|--------|6>------|5>------|--------|--------|
  1 2 3 4 1 2 3 4 1 2 3 4 1 2 3 4 1 2 3 4 1 2 3 4 1 2 3 4 1 2 3 4

Preverse
G:|--------|--------|--------|--------|
D:|--------|------75|--------|------75|
A:|--75----|--75----|--75----|--7>----|
E:|5>--5353|5>--55--|5>--5353|5>---5--|
  1 2 3 4 1 2 3 4 1 2 3 4 1 2 3 4


Verse
G:|--------|--------|--------|--------|--------|--------|--------|--------|
D:|--------|------75|--------|---5----|--------|------75|------75|--------|
A:|--75----|--75----|--75----|5>5--575|--75----|--75----|--------|--------|
E:|5>--5353|5>--55--|5>--5353|--------|5>--5353|5>--55--|55--5---|555-----|
  1 2 3 4 1 2 3 4 1 2 3 4 1 2 3 4 1 2 3 4 1 2 3 4 1 2 3 4 1 2 3 4

G:|--------|--------|--------|--------|--------|--------|--------|--------|
D:|--------|------75|--------|---5----|--------|------75|--------|--------|
A:|--75----|--75----|--75----|5>5--575|--75----|--75----|--75----|--------|
E:|5>--5353|5>--55--|5>--5353|--------|5>--5353|5>--55--|5>--5353|555-----|
  1 2 3 4 1 2 3 4 1 2 3 4 1 2 3 4 1 2 3 4 1 2 3 4 1 2 3 4 1 2 3 4

G:|--------|--------|--------|--------|--------|--------|--------|--------|
D:|--------|------75|--------|---5----|--------|------75|--------|--------|
A:|--75----|--75----|--75----|5>5--575|--75----|--75----|--75--3>|2>------|
E:|5>--5353|5>--55--|5>--5353|--------|5>--5353|5>--55--|5>--53--|--------|
  1 2 3 4 1 2 3 4 1 2 3 4 1 2 3 4 1 2 3 4 1 2 3 4 1 2 3 4 1 2 3 4

Chorus
G:|--------|--------|--------|--------|--------|--------|--------|--------|
D:|--------|--------|--------|--------|--------|--------|--------|--------|
A:|55-55-5-|77-77-7-|55-55-5-|77-77-7-|--------|--------|88-88-8-|7>------|
E:|--------|--------|--------|--------|7777--7-|8888--8-|--------|--------|
  1 2 3 4 1 2 3 4 1 2 3 4 1 2 3 4 1 2 3 4 1 2 3 4 1 2 3 4 1 2 3 4

Preverse
G:|--------|--------|--------|--------|
D:|--------|------75|--------|------75|
A:|--75----|--75----|--75----|--7>----|
E:|5>--5353|5>--55--|5>--5353|5>---5--|
  1 2 3 4 1 2 3 4 1 2 3 4 1 2 3 4


Verse Reprise
G:|--------|--------|--------|--------|--------|--------|--------|--------|
D:|--------|------75|--------|------75|--------|------75|--------|------75|
A:|--75----|--75----|--75----|--75----|--75----|--75----|--75----|--75----|
E:|5>--5353|5>--55--|5>--5353|5>--55--|5>--5353|5>--55--|5>--5353|5>--5---|
  1 2 3 4 1 2 3 4 1 2 3 4 1 2 3 4 1 2 3 4 1 2 3 4 1 2 3 4 1 2 3 4

G:|--------|--------|--------|--------|--------|--------|--------|--------|
D:|--------|------75|--------|---5----|--------|------75|--------|--------|
A:|--75----|--75----|--75----|5>5--575|--75----|--75----|--75--3>|2>------|
E:|5>--5353|5>--55--|5>--5353|--------|5>--5353|5>--55--|5>--53--|--------|
  1 2 3 4 1 2 3 4 1 2 3 4 1 2 3 4 1 2 3 4 1 2 3 4 1 2 3 4 1 2 3 4


Chorus Reprise
G:|--------|--------|--------|--------|--------|--------|--------|--------|
D:|--------|--------|--------|--------|--------|--------|--------|--------|
A:|55-55-5-|77-77-7-|55-55-5-|77-77-7-|--------|--------|--------|--------|
E:|--------|--------|--------|--------|7777--7-|8888--8-|7777--7-|8888--8\|
  1 2 3 4 1 2 3 4 1 2 3 4 1 2 3 4 1 2 3 4 1 2 3 4 1 2 3 4 1 2 3 4

G:|--------|--------|--------|--------|--------|--------|--------|--------|
D:|--------|--------|--------|--------|--------|--------|--------|--------|
A:|55-55-5-|77-77-7-|55-55-5-|77-77-7-|--------|--------|88-88-8-|7>-->---|
E:|--------|--------|--------|--------|7777--7-|8888--8-|--------|--------|
  1 2 3 4 1 2 3 4 1 2 3 4 1 2 3 4 1 2 3 4 1 2 3 4 1 2 3 4 1 2 3 4

G:|--------|
D:|--------|
A:|>--->---|
E:|--------|
  1 2 3 4


Outro
G:|--------|--------|--------|--------|--------|--------|--------|--------|
D:|--------|--------|--------|--------|--------|--------|--------|--------|
A:|--------|--------|--------|--------|--------|--------|3>------|--------|
E:|6>------|5>------|8>------|7>------|6>------|5>------|--------|3>------|
  1 2 3 4 1 2 3 4 1 2 3 4 1 2 3 4 1 2 3 4 1 2 3 4 1 2 3 4 1 2 3 4

G:|--------|--------|--------|--------|--------|--------|--------|--------|
D:|--------|--------|--------|--------|--------|--------|--------|--------|
A:|--------|--------|--------|--------|--------|--------|--------|--------|
E:|6>------|5>------|8>------|7>------|6>------|5>------|8>------|7>------|
  1 2 3 4 1 2 3 4 1 2 3 4 1 2 3 4 1 2 3 4 1 2 3 4 1 2 3 4 1 2 3 4

G:|--------|--------|--------|--------|--------|--------|--------|--------|
D:|--------|--------|--------|--------|--------|--------|--------|--------|
A:|--------|--------|--------|--------|--------|--------|3>------|2>------|
E:|6>------|5>------|8>------|7>------|6>------|5>------|--------|---3>---|
  1 2 3 4 1 2 3 4 1 2 3 4 1 2 3 4 1 2 3 4 1 2 3 4 1 2 3 4 1 2 3 4

G:|--------|--------|--------|--------|--------|--------|--------|--------|
D:|--------|--------|--------|--------|--------|--------|--------|--------|
A:|--------|--------|--------|--------|--------|--------|--------|--------|
E:|6>------|5>------|8>------|7>------|6-6>----|5-5>----|8>------|7>------|
  1 2 3 4 1 2 3 4 1 2 3 4 1 2 3 4 1 2 3 4 1 2 3 4 1 2 3 4 1 2 3 4

G:|--------|--------|--------|--------|--------|--------|--------|--------|
D:|--------|--------|--------|--------|--------|--------|--------|--------|
A:|--------|--------|--------|--------|--------|--------|--------|--------|
E:|6>--6-6-|5>--5-5-|8>--8-8-|7>--7-7-|6>--6>--|5>--5>--|8>--8>--|7>--7>--|
  1 2 3 4 1 2 3 4 1 2 3 4 1 2 3 4 1 2 3 4 1 2 3 4 1 2 3 4 1 2 3 4

G:|--------|--------|--------|--------|--------|--------|--------|--------|
D:|--------|--------|--------|--------|--------|--------|--------|--------|
A:|--------|--------|--------|--------|--------|--------|--------|--------|
E:|6>--6>--|5>--5>--|8>--8>--|7>--7>--|6>--6>--|5>--5>--|8>--8>--|7>------|
  1 2 3 4 1 2 3 4 1 2 3 4 1 2 3 4 1 2 3 4 1 2 3 4 1 2 3 4 1 2 3 4


|| repeat between || as indicated	h hammer on		~ vibrato
/ slide up				p pull off
\ slide down				1. dotted note
> legato (let note ring)		11 fret one, twice
! full stop mute			11 fret eleven
R rest					x ghost note

Almost there ...

Sign in to get your own page with links to favourite songs and more. You are just one click away...

Login with Facebook Login with Google