Log in

One click and you are in

Login with Facebook Login with Google

Why sign up and log in

Guitar Tabs Explorer
Duran Duran bass tabs for Big thing

Bass tabs

Tuning: 0

Difficulty: 0

Tabbed by: bassm99
E-mail: alanmatthews1966@yahoo.co.uk
Intro Vocal: (Bass Starts 0:17)

G|--------------------------------------------------------------------------|
D|--------------------------------------------------------------------------|
A|--------------------------------------------------------------------------|
E|--333---------------------------------------------------------------------|


Verse:

G|--------------------7-7--4--5---------------------------------------------|
D|---7-7--4--5-------------------------7-7--4--5----------------------------|
A|-------------------5-5--2--3--(x2)----------------------------------------|
E|--5-5--2--3--(x4)-------------------5-5--2--3--(x2)-----------------------|


Chorus:

G|---9-9--9--9---7-7--7--7---5-5--5--5---5-5--5--7--------------------------|
D|--------------------------------------------------------------------------|
A|--7-7--7--7---5-5--5--5---3-3--3--3---3-3--3--5---------------------------|
E|--------------------------------------------------------------------------|


Intro Vocal: (Play 4 Times)

G|--------------------------------------------------------------------------|
D|---7-7--------------------------------------------------------------------|
A|--------------------------------------------------------------------------|
E|--5-5---333---------------------------------------------------------------|

Repeat Verse:

Repeat Chorus:

Repeat Intro Vocal:

Brass Solo: (Play 4 Times)

G|--------------------------------------------------------------------------|
D|---7-7--4--5--------------------------------------------------------------|
A|--------------------------------------------------------------------------|
E|--5-5--2--3---------------------------------------------------------------|

Female Vocal Chorus: (Bass Stops 2:37)

G|---9-9--------------------------------------------------------------------|
D|--------------------------------------------------------------------------|
A|--7-7---------------------------------------------------------------------|
E|--------------------------------------------------------------------------|


Intro Vocal: (Bass Starts 2:52)

G|--------------------------------------------------------------------------|
D|---4--5--------7-7--4--5--------------------------------------------------|
A|--------------------------------------------------------------------------|
E|--2--3--(x1)--5-5--2--3--(x11)--------------------------------------------|

End:

G|--------------------------------------------------------------------------|
D|--------------------------------------------------------------------------|
A|--------------------------------------------------------------------------|
E|--55555-------------------------------------------------------------------|

Big Thing bass tab

Duran Duran bass tabs for Big thing "Big Thing" From the album "Big Thing" (1988).

Written by Taylor/Rhodes/Le Bon.

Almost there ...

Sign in to get your own page with links to favourite songs and more. You are just one click away...

Login with Facebook Login with Google