Log in

One click and you are in

Login with Facebook Login with Google

Why sign up and log in

Guitar Tabs Explorer
Dunaj tabs for Wahoo

Guitar tabs

Piece of music from album of Czech alternative group - DUNAJ


Wahoo - from "Dudlay"
music:Dunaj,words:Vladimir Vaclavek
Je to jisty...

e-----------------------
b-----------------------
g-----------------------
d------2-------0---2----
a----2---2---0-------0--
E--0-------3-----2------

Wahoo,wahoo...

e------------------------------
b------------------------------
g------2-------0---4---------0-
d----2---2---0-------4-----4---
a--0-------------2-------2-----
E----------3-----------0-------




Transcription made by Lucas Mrzyglod : <lmrzygl@student.uci.agh.edu.pl> or <lukas@mega.com.pl>
www:<http://www.mega.com.pl/users/lukas

Almost there ...

Sign in to get your own page with links to favourite songs and more. You are just one click away...

Login with Facebook Login with Google