Log in

One click and you are in

Login with Facebook Login with Google

Why sign up and log in

Guitar Tabs Explorer
Dunaj tabs for The circle has been

Guitar tabs

Piece of music from album of Czech alternative group - DUNAJ

The Circle Has Closed - from "Dudlay"
music:Dunaj,words:Vladimir Vaclavek

bass guitar:

D-----------------------
G----------2------------
A------0-5---0-3-5-0-2--
D--0-3------------------
electric guitar:

e--------------------------------------------------
b--------------------------------------------------
g--4-4-4-5-4-4-5-4-----------------4-4-4-5-4-4-5-4-
d------------------3-3-3-3-3-3-3-3-----------------
a--------------------------------------------------
E--------------------------------------------------

e------------------
b------------------
g------------------
d-3-3-3-3-2-2-2-2--
a------------------
E------------------


Transcription made by Lucas Mrzyglod : <lmrzygl@student.uci.agh.edu.pl> or <lukas@mega.com.pl>
www:<http://www.mega.com.pl/users/lukas

Almost there ...

Sign in to get your own page with links to favourite songs and more. You are just one click away...

Login with Facebook Login with Google