Log in

One click and you are in

Login with Facebook Login with Google

Why sign up and log in

Guitar Tabs Explorer
Dunaj chords for Popel a dyn

Guitar chords

<lmrzygl@student.uci.agh.edu.pl>


Piece of music from album of Czech alternative group - DUNAJ
Popel a dym - from "IV"
music:Dunaj,words:Vladimir Vaclavek

figure 1 (on vocal)

first guitar:
e-------------------------------------------
b----------0---------0---------0------------
g------0---------0---------0---------2------
d----------------------------------0-----2--
a----2---------2---------2-------------0----
E--0-----3---0-----3---0-----3---2----------


second guitar:
e----------------------------------------
b----------------------------------------
g------0-------0-------0-------0---------
d----0---4---0---4---0---2---0---4-0-2---
a--2-------2-------2-------2-------------
E----------------------------------------


figure 2 (between vocal parts)

first guitar:

e--------0--------------------
b----------1-3---0-1----------
g------0-------2-----0--------
d----2---------------------0--
a--3---------------------0----
E----------------------2------

second guitar:

e--2---0---2---0---2---0------
b----3---1---3---1---3---1----
g-----------------------------
d-----------------------------
a-----------------------------
E-----------------------------



Transcription made by Lucas Mrzyglod : <lmrzygl@student.uci.agh.edu.pl> or
<lukas@mega.com.pl> www:<http://www.mega.com.pl/users/lukas

ⓘ Guitar chords for 'Popel A Dyn' by, a female blues artist from Tennessee, United States. was born in 1957.

Almost there ...

Sign in to get your own page with links to favourite songs and more. You are just one click away...

Login with Facebook Login with Google