Log in

One click and you are in

Login with Facebook Login with Google

Why sign up and log in

Guitar Tabs Explorer
Duffy bass tabs for Warwick avenue

Bass tabs

Couldn't find this anywhere so my first ever attempt at a TAB. It fits pretty well.

Tabbed by Juliet Green

PATTERN 1
G-----------------|-------------5-|---------------|------------------|
D--------------5--|---------7-8---|---------5-8-5-|------------------|
A----------5-8----|--5---8--------|--6---8--------|-----------4-64---|
E--6---8----------|---------------|---------------|--2---4-6-------6-| X4

              (1ST TIME)BAD     TEAR
              (2ND TIME)BABY    THROUGH
G-----------------|-------------5-|------------|-------------|
D---------------5-|---------7-8---|--6---6--6-6|--4---4-43--3|
A----------5-8----|--5---8--------|------------|-------------|
E--6---8----------|---------------|------------|-------------|

I'M LEAVING...
G-3---3--------|--------------|---------------|----------|-------------|------------|------------|
D--------------|--------------|---------------|-6-6-5--5-|-------55---5|-3---3-33--3|------------|
A--------------|4---4--6-6--6-|-3---3--1-1---1|----------|-3---3-------|------------|-6----------|
E--------------|--------------|---------------|----------|-------------|------------|------------|

1S TIME (WANT TO BE FREE)
G-------------|------------|
D-------------|------------|
A-5-3---------|-3-3--------|
E----------3--|-------(6---|TO TOP)

2ND TIME (DON'T LOVE ME)
G-------------|------------|-------------|-----------|
D-------------|------------|-1-1---------|-----------|
A-5-3---------|-3-3--------|----------1--|--------1--|
E----------3--|---------1--|-------------|-----------|

ALL THE DAYS
G-------------|----------|-----------|------------|------------|-------------|
D-------------|----------|-----------|------------|------------|-------------|
A-3--33--1-1-1|-00--00000|-----------|3--33--1-1-1|0--0--0-00-0|-------------|
E-------------|----------|-4444-3333-|------------|------------|-4--44-4---4-|

G-------------|-------------|-------------|----------|
D-------------|-3---3-33--3-| 6---6-55---5|4444-3333-|
A-3---3-33--3-|-------------|-------------|----------|
E-------------|-------------|-------------|----------|


INSTRUMENTAL
G-3---3---------|--------------|-------------|-------------|
D-------33--3---|-4---4-6--6--6|-------------|-------------|
A---------------|--------------|-3--3---11--1|-------------|
E---------------|--------------|-------------|--4-4--3---3-|

G---------------|-------------|----------------|
D---------5-5--5|-3---3-33--3-|--1-------------| YOU THINK
A--3-3----------|-------------|----------------|
E---------------|-------------|----------------|

DON'T LOVE ME
G-------------|------------|-------------|----------|
D-------------|------------|-1-1---------|----------|
A-5-3---------|-3-3--------|--------1----|-------1--|
E----------3--|---------1--|-------------|----------| X 2

Almost there ...

Sign in to get your own page with links to favourite songs and more. You are just one click away...

Login with Facebook Login with Google