Log in

One click and you are in

Login with Facebook Login with Google

Why sign up and log in

Guitar Tabs Explorer
Dua Lipa bass tabs for Pretty please

Bass tabs

Tuning: Standard (E A D G)


Verse 1:
G|---------------------------------------------------------------------------|
D|---------------------------------------------------------------------------|
A|---------------------------------------6----6--6--6-6----6----6--6--6-6--4-|
E|-2----2--2--2-2----2----2--2--2-2--/6--------------------------------------|

G|---------------------------------------------------------------------------|
D|---------------------------------------------------------------------------|
A|-9----9--9--9-9----9----9--9--9-9---8--6----6--6--6-6----6----6--6--6-6--4-|
E|---------------------------------------------------------------------------|
Pre-Chorus:
G|---------------------------------------------------------------------------|
D|---------------------------------------------------------------------------|
A|---------------------------------------6----6--6--6-6----6----6--6--6-6--4-|
E|-2----2--2--2-2----2----2--2--2-2--/6--------------------------------------|

G|---------------------------------------------------------------------------|
D|---------------------------------------------------------------------------|
A|-9----9--9--9-9----9----9--9--9-9---8--6----6--6--6-6----6-----------------|
E|---------------------------------------------------------------------------|


Chorus:
G|---------------------------------------------------------------------------|
D|---------------------------------------------------------------------------|
A|---------------------------------------6----6--6--6-6----6----6--6--6-6--4-|
E|-2----2--2--2-2----2----2--2--2-2--/6--------------------------------------|

G|---------------------------------------------------------------------------|
D|---------------------------------------------------------------------------|
A|-9----9--9--9-9----9----9--9--9-9---8--6----6--6--6-6----6----6--6--6-6--4-|
E|---------------------------------------------------------------------------|

Verse 2:
G|---------------------------------------------------------------------------|
D|---------------------------------------------------------------------------|
A|---------------------------------------6----6--6--6-6----6----6--6--6-6--4-|
E|-2----2--2--2-2----2----2--2--2-2--/6--------------------------------------|

G|---------------------------------------------------------------------------|
D|---------------------------------------------------------------------------|
A|-9----9--9--9-9----9----9--9--9-9---8--6----6--6--6-6----6----6--6--6-6----|
E|---------------------------------------------------------------------------|


Pre-Chorus:
G|---------------------------------------------------------------------------|
D|---------------------------------------------------------------------------|
A|---------------------------------------6----6--6--6-6----6----6--6--6-6--4-|
E|-2----2--2--2-2----2----2--2--2-2--/6--------------------------------------|

G|---------------------------------------------------------------------------|
D|---------------------------------------------------------------------------|
A|-9----9--9--9-9----9----9--9--9-9---8--6----6--6--6-6----6-----------------|
E|---------------------------------------------------------------------------|


Chorus:
G|---------------------------------------------------------------------------|
D|---------------------------------------------------------------------------|
A|---------------------------------------6----6--6--6-6----6----6--6--6-6--4-|
E|-2----2--2--2-2----2----2--2--2-2--/6--------------------------------------|

G|---------------------------------------------------------------------------|
D|---------------------------------------------------------------------------|
A|-9----9--9--9-9----9----9--9--9-9---8--6----6--6--6-6----6----6--6--6-6--4-|
E|---------------------------------------------------------------------------|

G|---------------------------------------------------------------------------|
D|---------------------------------------------------------------------------|
A|---------------------------------------6----6--6--6-6----6----6--6--6-6--4-|
E|------2--2--2-2----2----2--2--2-2--/6--------------------------------------|

G|---------------------------------------------------------------------------|
D|---------------------------------------------------------------------------|
A|-9----9--9--9-9----9----9--9--9-9---8--6----6--6--6-6----6----6--6--6-6--4-|
E|---------------------------------------------------------------------------|


Bridge:
G|---------------------------------------------------------------------------|
D|---------------------------------------------------------------------------|
A|---------------------------------------6----6--6--6-6----6----6--6--6-6--4-|
E|------2--2--2-2----2----2--2--2-2--/6--------------------------------------|

G|---------------------------------------------------------------------------|
D|---------------------------------------------------------------------------|
A|------9--9--9-9----9----9--9--9-9---8--6----6--6--6-6----6----6--6--6-6--4-|
E|---------------------------------------------------------------------------|


Pre-Chorus:
G|---------------------------------------------------------------------------|
D|----------------------------------------13----13--13--13-13----------------|
A|-9----9--9--9-9----9----9--9--9-9--/13-------------------------------------|
E|---------------------------------------------------------------------------|


Chorus:
G|---------------------------------------------------------------------------|
D|---------------------------------------------------------------------------|
A|---------------------------------------6----6--6--6-6----6----6--6--6-6--4-|
E|-2----2--2--2-2----2----2--2--2-2--/6--------------------------------------|

G|---------------------------------------------------------------------------|
D|---------------------------------------------------------------------------|
A|-9----9--9--9-9----9----9--9--9-9---8--6----6--6--6-6----6----6--6--6-6--4-|
E|---------------------------------------------------------------------------|


Outro:
G|---------------------------------------------------------------------------|
D|---------------------------------------------------------------------------|
A|---------------------------------------6----6--6--6-6----6----6--6--6-6--4-|
E|------2--2--2-2----2----2--2--2-2--/6--------------------------------------|

G|---------------------------------------------------------------------------|
D|---------------------------------------------------------------------------|
A|-9----9--9--9-9----9----9--9--9-9---8--6----6--6--6-6----6----6--6--6-6----|
E|---------------------------------------------------------------------------|

************************************
| /  Slide up
************************************

Almost there ...

Sign in to get your own page with links to favourite songs and more. You are just one click away...

Login with Facebook Login with Google