Log in

One click and you are in

Login with Facebook Login with Google

Why sign up and log in

Guitar Tabs Explorer
Dua Lipa bass tabs for Levitating (Ver. 2)

Bass tabs

  • Difficulty: Intermediate
Tuning: Standard (E A D G)


Intro:

G|--------------------------------------|-------------------------------------|
D|--------------------------------------|-------------------------------------|
A|--------------------------------------|-------------------------------------|
E|--------------------------------------|-------------------------------------|

G|--------------------------------------|-------------------------------------|
D|--------------------------------------|-------------------------------------|
A|--------------------------------------|-------------------------14s2--------|
E|--------------------------------------|-------------------------------------|
                     1  +  2 + 3  +   4   +
Verse 1:
"If you wanna run away with me"

G|-----4------------------------------------|-----4----------------------------4--2h3-4-|
D|---------------4---------2----------------|---------------4---3-----2-----------------|
A|--2--------------------------0--2---------|--2--------------------------0--2----------|
E|---------0--2------1--0-------------------|---------0--2----1----0--------------------|
  1... 2... 3... 4... 1... 2... 3... 4...  1... 2... 3... 4... 1... 2... 3... 4 ...


G|-----4-----------------------------4---s11-|-----4----------------------------4-------|
D|---------------4---------2---0--2----------|---------------4---3-----2----------------|
A|--2----------------------------------------|--2--------------------------0--2----14s--|
E|---------0--2------1--0--------------------|---------0--2----1----0-------------------|
  1... 2... 3... 4... 1... 2... 3... 4. ..  1... 2... 3... 4... 1... 2... 3... 4...


Pre-Chorus:
"You want me"
G|-----4-----------------------------4------|-----4-------------------------------------|
D|---------------4---------2----------------|---------------4---------------------------|
A|--2--------------------------0--2---------|--2----------------------------0--2-2--s14-|
E|---------0--2------1--0----------------0--|---------1--2------1--0--2--2--------------|
  1... 2... 3... 4... 1... 2... 3... 4...  1... 2... 3... 4... 1... 2... 3... 4...


Chorus:
"I got you, moonlight"
G|-----4-----------------------------4---2h4-|-----4-----------------------------4-------|
D|---------------4---------2-----------------|---------------4---------2-------------2h4-|
A|--2--------------------------0--2----------|--2--------------------------0--2----------|
E|---------0--2------1--0--------------------|---------0--2------1--0--------------------|
  1... 2... 3... 4... 1... 2... 3... 4...   1... 2... 3... 4... 1... 2... 3... 4...

G|-----4-----------------------------4---2h4-|-----4-----------------------------4-------|
D|---------------4---------2-----------------|---------------4---------2-------------2h4-|
A|--2--------------------------0--2----------|--2--------------------------0--2----------|
E|---------0--2------1--0--------------------|---------0--2------1--0--------------------|
  1... 2... 3... 4... 1... 2... 3... 4...   1... 2... 3... 4... 1... 2... 3... 4...

Rap Break:
"im one of the greatest"
G|---------------------------------------------------------------------------------------|
D|---------------------------------------------------------------------------------------|
A|---------------------------------------------------------------------------------------|
E|---------------------------------------------------------------------------------------|

G|--------------------------------------|-------------------------------------|
D|--------------------------------------|-------------------------------------|
A|--------------------------------------|-------------------------------------|
E|--------------------------------------|-------------------------------------|
              "she told me she loved me and she been waitin'"
G|--------------------------------------|-------------------------------------|
D|--------------------------------------|-------------------------------------|
A|--------------------------------------|-----------------------------14s2----|
E|--------------------------------------|-------------------------------------|
                       1  +  2 + 3  +   4   +

G|-----4-----------------------------4---2h4-|-----4-----------------------------4---2h4-|
D|---------------4---------2-----------------|--------------4---3------2-----------------|
A|--2--------------------------0--2----------|--2--------------------------0--2----------|
E|---------0--2------1--0--------------------|---------0--2----1----0--------------------|
  1... 2... 3... 4... 1... 2... 3... 4...   1... 2... 3... 4... 1... 2... 3... 4...

"left foot, right foot"
G|-----4-----------------------------4-------|-----4-----------------------------4--------|
D|---------------4---------2-------------2h4-|---------------4---3-----2-------------2h4--|
A|--2--------------------------0--2----------|--2--------------------------0--2-----------|
E|---------0--2------1--0--------------------|---------0--2----1----0---------------------|
  1... 2... 3... 4... 1... 2... 3... 4...   1... 2... 3... 4... 1... 2... 3... 4...

                           "i kept my head up"
G|-----4-----------------------------4---2h4-|-----4--------------------------------------|
D|---------------4---------2-----------------|---------------4---3-----2------------------|
A|--2--------------------------0--2----------|--2-----------------------------------------|
E|---------0--2------1--0--------------------|---------0--2----1----0-----------==--------|
  1... 2... 3... 4... 1... 2... 3... 4...   1... 2... 3... 4... 1... 2... 3... 4...

"now baby stand up"
G|----------------------------------------------------------------------------------------|
D|----------------------------------------------------------------------------------------|
A|----------------------------------------------------------------------------------------|
E|----------------------------------------------------------------------------------------|



Pre-Chorus:
"you want me"
G|-----4-----------------------------4-------|-----4---------------------------------------|
D|---------------4--------2------------------|---------------4--------------4----5-------7~|
A|--2------0-------------------0--2------0---|--2---------------------7--------------------|
E|------------2------1--0--------------------|---------0--2------1--0----0h2--2h3--3h5-5---|
  1... 2... 3... 4... 1... 2... 3... 4...   1... 2... 3... 4... 1... 2... 3... 4. . .



Chorus:

"I got you, moonlight"
G|-----4-----------------------------4---2h4-|-----4------------------------------4-------|
D|---------------4---------2-----------------|---------------4---------2-------------2h4--|
A|--2--------------------------0--2----------|--2--------------------------0--2-----------|
E|---------0--2------1--0--------------------|---------0--2------1--0---------------------|
  1... 2... 3... 4... 1... 2... 3... 4...   1... 2... 3... 4... 1... 2... 3... 4...

G|-----4-----------------------------4---2h4-|-----4-----------------------------4-------|
D|---------------4---------2-----------------|---------------4---------2-------------2h4-|
A|--2--------------------------0--2----------|--2--------------------------0--2----------|
E|---------0--2------1--0--------------------|---------0--2------1--0--------------------|
  1... 2... 3... 4... 1... 2... 3... 4...   1... 2... 3... 4... 1... 2... 3... 4...

"you can fly away"
G|-----4-----------------------------4-------|-----4-----------------------------4-------|
D|---------------4---------2-------------2h4-|---------------4---3-----2-------------2h4-|
A|--2--------------------------0--2----------|--2--------------------------0--2----------|
E|---------0--2------1--0--------------------|---------0--2----1----0--------------------|
  1... 2... 3... 4... 1... 2... 3... 4...   1... 2... 3... 4... 1... 2... 3... 4...

G|-----4-----------------------------4-------|-----4----------------------------4--------|
D|---------------4---------2-------------2h4-|---------------4---3-----2-----------------|
A|--2--------------------------0--2----------|--2--------------------------0--2----------|
E|---------0--2------1--0--------------------|---------0--2----1----0--------------------|
  1... 2... 3... 4... 1... 2... 3... 4...   1... 2... 3... 4... 1... 2... 3... 4...


Bridge:
"My love is like a rocket, watch it blast off"
G|--------------------------------------|-------------------------------------|
D|--------------------------------------|-------------------------------------|
A|--------------------------------------|-------------------------------------|
E|--------------------------------------|-------------------------------------|
               "Yeah, yeah, yeah, yeah, yeah"
G|--------------------------------------|-------------------9h11-9-7----------|
D|--------------------------------------|----------------------------9-7------|
A|--------------------------------------|-------------------------------------|
E|--------------------------------------|-------------------------------------|
                     1  +  2 + 3 + 4    +

"My love is like a rocket, watch it blast off"
G|----4-4------4-4------------------------|---------------------4-4----4-4------|
D|---------------------4-4----------------|-----2-2-----2-2---------------------|
A|--2-------2-----------------------------|------------------2------2-----------|
E|------------------2-------2--1----------|--0-------0--------------------------|
  1 +   2 +  3 +  4 +       1 +  2 +  3 +  4 +


G|-----4-4-------4-4-------------------|-----9-9-------------4s7-4s----------|
D|-------------------------------------|-------------------------------------|
A|--2--------2---------9s----8s--------|--7---------------2------------------|
E|-------------------------------------|-------------------------------------|
  1 +   2  +   3 + 4 +     1 +   2 +  3 +  4 +


Pre-Chorus:
"You want me"
G|------------------------------------------|----------------------------------------|
D|------------------------------------------|----------------------------------------|
A|--2--------------------------0--2------0--|--2--------------------------2----------|
E|---------0--2------1--0-------------------|---------0--2------1--0---------2-------|
  1... 2... 3... 4... 1... 2... 3... 4...  1... 2... 3... 4... 1... 2... 3... 4...



Chorus:
"I got you, moonlight, you're my starlight...."
G|----------------------------------------------------------------------------|
D|----------------------------------------------------------------------------|
A|----------------------------------------------------------------------------|
E|----------------------------------------------------------------------------|
                  "...im levitating"
G|--------------------------------------|-------------------9h11-9-7----------|
D|--------------------------------------|----------------------------9-7------|
A|--------------------------------------|-------------------------------------|
E|--------------------------------------|-------------------------------------|
                     1  +  2 + 3 + 4    +

G|-----4-4-------4-4-------------------|---------------------4-4----4-4------|
D|----------------------4-4------------|-----2-2-----2-2---------------------|
A|--2--------2-------------------------|------------------2------2-----------|
E|-------------------2-------2--1------|--0-------0--------------------------|
  1 +   2  +  3 +  4 +     1 +   2 +  3 +  4 +

G|-----4-4-------4-4-------------------|-----9-9-------------4s7-4s----------|
D|-------------------------------------|-------------------------------------|
A|--2--------2---------9s----8s--------|--7---------------2------------------|
E|-------------------------------------|-------------------------------------|
  1 +   2  +   3 + 4 +     1 +  2 +  3 +  4 +


G|-----4-4-------4-4-------------------|---------------------4-4----4-4------|
D|----------------------4-4------------|-----2-2-----2-2---------------------|
A|--2--------2-------------------------|------------------2------2-----------|
E|-------------------2-------2--1------|--0-------0--------------------------|
  1 +   2  +  3 +  4 +     1 +  2 +  3 +  4 +

G|-----4-4-------4-4-------------------|-----9-9-------------4s7-4s----------|
D|-------------------------------------|-------------------------------------|
A|--2--------2---------9s----8s--------|--7---------------2------------------|
E|-------------------------------------|-------------------------------------|
  1 +  2 +    3 +  4 +    1 +  2 +  3 +  4 +

G|-----4-4-------4-4-------------------|---------------------4-4----4-4------|
D|----------------------4-4------------|-----2-2-----2-2---------------------|
A|--2--------2-------------------------|------------------2------2-----------|
E|-------------------2-------2--1------|--0-------0--------------------------|
  1 +   2 +  3 +  4 +     1 +  2 +  3 +  4 +


G|-----4-4-------4-4-------------------|-----9-9-----------------------------|
D|-------------------------------------|-------------------------------------|
A|--2--------2---------9s----8s--------|--7----------------------------------|
E|-------------------------------------|------------------7~-----------------|
  1 +   2 +   3 + 4 +     1 +  2 +  3 +  4 +


************************************
| h  Hammer-on
| s  Slide
| ~  vibrato
************************************


NOTE: You can actually slap this line if you feel like it

Other versions of Levitating

LevitatingBass tabs

Almost there ...

Sign in to get your own page with links to favourite songs and more. You are just one click away...

Login with Facebook Login with Google