Log in

One click and you are in

Login with Facebook Login with Google

Why sign up and log in

Guitar Tabs Explorer
Dua Lipa bass tabs for Dont start now

Bass tabs

Tuning: Standard (E A D G)

Key: Em

Difficulty: Intermediate
Intro:
  1 + 2 + 3 + 4 +  1 + 2 + 3 + 4 +  1 + 2 + 3 + 4 +  1 + 2 + 3 + 4 +
G|-----------------|-----------------|-----------------|------------------|
D|-----------------|-----------------|-----------------|------------------|
A|-----------------|-----------------|-----------------|------------------|
E|-----------------|-----------------|-----------------|------------/17\--|


Verse 1:
  1 + 2 + 3 + 4 +  1 + 2 + 3 + 4 +  1 + 2 + 3 + 4 +  1 + 2 + 3 + 4 +
G|-----------------|-----------------|-----------------|----7------------|
D|----2------2-----|----9------9-----|----5------5-----|----------7------|
A|-----------------|-----------------|-----------------|-5---------------|
E|-0-----0-------55|-7-----7-------55|-3-----3-------55|-------5-------5-|

  1 + 2 + 3 + 4 +  1 + 2 + 3 + 4 +  1 + 2 + 3 + 4 +  1 + 2 + 3 + 4 +
G|-----------------|-------------------|-----------------|----7------------|
D|----2------2-----|----9--------------|----5------5-----|----------7----7-|
A|-----------------|-------------------|-----------------|-5---------------|
E|-0-----0-------55|-7-----7--7-7/12\55|-3-----3-------55|-------5-----5---|

  1 + 2 + 3 + 4 +  1 + 2 + 3 + 4 +  1 + 2 + 3 + 4 +  1 + 2 + 3 + 4 +
G|-----------------|-----------------|-----------------|----7------------|
D|----2------2-----|----9------9-----|----5------5-----|----------7--7\--|
A|-----------------|-----------------|-----------------|-5---------------|
E|-0-----0-------55|-7-----7-------55|-3-----3-------55|-------5---------|

Pre-Chorus 1:
  1 + 2 + 3 + 4 +  1 + 2 + 3 + 4 +  1 + 2 + 3 + 4 +  1 + 2 + 3 + 4 +
G|-----------------|-----------------|-----------------|-----------------|
D|-----------------|-----------------|-----------------|-----------------|
A|-----------------|-----------------|-----------------|-----------------|
E|-----------------|-----------------|-----------------|-----------------|

  1 + 2 + 3 + 4 +  1 + 2 + 3 + 4 +  1 + 2 + 3 + 4 +  1 + 2 + 3 + 4 +
G|-----------------|-----------------|-----------------|-----------------|
D|-----------------|-----------------|-----------------|-----------------|
A|-----------------|-----------------|-----------------|-----------------|
E|-----------------|-----------------|-----------------|-----------------|


Chorus 1:
       P         P         P
  1 + 2 + 3 + 4 +  1 + 2 + 3 + 4 +  1 + 2 + 3 + 4 +  1 + 2 + 3 + 4 +
G|-----------------|-----------------|-----------------|----7------------|
D|----2------2-----|----9------9-----|----5------5-----|----------7------|
A|-----------------|-----------------|-----------------|-5---------------|
E|-0-----0-------55|-7-----7-------55|-3-----3-------55|-------5-------5-|

       P         P         P
  1 + 2 + 3 + 4 +  1 + 2 + 3 + 4 +  1 + 2 + 3 + 4 +  1 + 2 + 3 + 4 +
G|-----------------|-----------------|-----------------|-----------------|
D|----2------2-----|----9------9-----|----5------5-----|-.---------------|
A|-----------------|-----------------|-----------------|-5---------------|
E|-0-----0-------55|-7-----7-------55|-3-----3-------55|-----------------|


Verse 2:
  1 + 2 + 3 + 4 +  1 + 2 + 3 + 4 +  1 + 2 + 3 + 4 +  1 + 2 + 3 + 4 +
G|-----------------|-----------------|-----------------|----7------------|
D|----2------2-----|----9------9-----|----5------5-----|----------7------|
A|-----------------|-----------------|-----------------|-5---------------|
E|-0-----0-------55|-7-----7-------55|-3-----3-------55|-------5-------5-|

  1 + 2 + 3 + 4 +  1 + 2 + 3 + 4 +  1 + 2 + 3 + 4 +  1 + 2 + 3 + 4 +
G|-----------------|--------------- ---|-----------------|----7------------|
D|----2------2-----|----9---------- ---|----5------5-----|----------7----7-|
A|-----------------|--------------- ---|-----------------|-5---------------|
E|-0-----0-------55|-7-----7--7-7/12\55|-3-----3-------55|-------5-----5---|

  1 + 2 + 3 + 4 +  1 + 2 + 3 + 4 +  1 + 2 + 3 + 4 +  1 + 2 + 3 + 4 +
G|-----------------|-----------------|-----------------|----7------------|
D|----2------2-----|----9------9-----|----5------5-----|----------7--7\--|
A|-----------------|-----------------|-----------------|-5---------------|
E|-0-----0-------55|-7-----7-------55|-3-----3-------55|-------5---------|


Pre-Chorus 2:
  1 + 2 + 3 + 4 +  1 + 2 + 3 + 4 +  1 + 2 + 3 + 4 +  1 + 2 + 3 + 4 +
G|-----------------|-----------------|-----------------|-----------------|
D|-----------------|-----------------|-----------------|-----------------|
A|-----------------|-----------------|-----------------|-----------------|
E|-----------------|-----------------|-----------------|-----------------|

  1 + 2 + 3 + 4 +  1 + 2 + 3 + 4 +  1 + 2 + 3 + 4 +  1 + 2 + 3 + 4 +
G|-----------------|-----------------|-----------------|-----------------|
D|-----------------|-----------------|-----------------|-----------------|
A|-----------------|-----------------|-----------------|-----------------|
E|-----------------|-----------------|-----------------|-----------------|


Chorus 2:
       P         P         P        P
  1 + 2 + 3 + 4 +  1 + 2 + 3 + 4 +  1 + 2 + 3 + 4 +  1 + 2 + 3 + 4 +
G|-----------------|-----------------|-----------------|----7------------|
D|----2------2-----|----9------9-----|----5------5-----|----------7------|
A|-----------------|-----------------|-----------------|-5---------------|
E|-0-----0-------55|-7-----7-------55|-3-----3-------55|-------5-------5-|

       P         P         P        P
  1 + 2 + 3 + 4 +  1 + 2 + 3 + 4 +  1 + 2 + 3 + 4 +  1 + 2 + 3 + 4 +
G|-----------------|-----------------|-----------------|----7------------|
D|----2------2-----|----9------9-----|----5------5-----|----------7------|
A|-----------------|-----------------|-----------------|-5---------------|
E|-0-----0-------55|-7-----7-------55|-3-----3-------55|-------5-------5-|


Bridge:
                P
  1 + 2 + 3 + 4 +  1 + 2 + 3 + 4 +  1 + 2 + 3 + 4 +  1 + 2 + 3 + 4 +
G|-----------------|-----------------|-----------------|-----------------|
D|-----------------|-----------9-----|-----------------|-----------7-----|
A|-----------------|-----------------|-----------------|-5---------------|
E|-0-----0-------55|-7-----7-------55|-3-----3-------55|-------5---------|

                P
  1 + 2 + 3 + 4 +  1 + 2 + 3 + 4 +  1 + 2 + 3 + 4 +  1 + 2 + 3 + 4 +
G|-----------------|-----------------|-----------------|----7------------|
D|-----------------|-----------9-----|-----------5-----|----------7--7\--|
A|-----------------|-----------------|-----------------|-5---------------|
E|-0-----0-------55|-7-----7-------55|-3-----3-------55|-------5---------|


Pre-Chorus 3:
  1 + 2 + 3 + 4 +  1 + 2 + 3 + 4 +  1 + 2 + 3 + 4 +  1 + 2 + 3 + 4 +
G|-----------------|-----------------|-----------------|-----------------|
D|-----------------|-----------------|-----------------|-----------------|
A|-----------------|-----------------|-----------------|-----------------|
E|-----------------|-----------------|-----------------|-----------------|

  1 + 2 + 3 + 4 +  1 + 2 + 3 + 4 +  1 + 2 + 3 + 4 +  1 + 2 + 3 + 4 +
G|-----------------|-----------------|-----------------|------------------|
D|-----------------|-----------------|-----------------|------------------|
A|-----------------|-----------------|-----------------|------------------|
E|-----------------|-----------------|-----------------|--------/12\------|


Chorus 3:
   P   P     P   P
  1 + 2 + 3 + 4 +  1 + 2 + 3 + 4 +  1 + 2 + 3 + 4 +  1 + 2 + 3 + 4 +
G|-----------------|----7------7-----|-----------------|-----------------|
D|----9------9-----|-----------------|-----------------|------2----------|
A|-----------------|-5-----5-------55|-5--7-h9--7------|-----------------|
E|-7-----7-------7-|-----------------|--------------000|-0--0----0--03-5-|

   P   P     P   P
  1 + 2 + 3 + 4 +  1 + 2 + 3 + 4 +  1 + 2 + 3 + 4 +  1 + 2 + 3 + 4 +
G|-----------------|----7------7-----|-----------------|-----------------|
D|----9------9-----|-----------------|-----------------|------2----------|
A|-----------------|-5-----5-------55|-5--7-h9--7------|-----------------|
E|-7-----7-------7-|-----------------|--------------000|-0--0----0--03-5-|


Outro:
   P   P     P   P
  1 + 2 + 3 + 4 +  1 + 2 + 3 + 4 +  1 + 2 + 3 + 4 +  1 + 2 + 3 + 4 +
G|-----------------|----7------7-----|-----------------|-----------------|
D|----9------9-----|-----------------|-----------------|------2----------|
A|-----------------|-5-----5-------55|-5--7-h9--7------|-----------------|
E|-7-----7-------77|-----------------|--------------000|-0--0----0--03-5-|

   P   P     P   P
  1 + 2 + 3 + 4 +  1 + 2 + 3 + 4 +  1 + 2 + 3 + 4 +  1 + 2 + 3 + 4 +
G|-----------------|----7------7-----|-----------------|-----------------|
D|----9------9-----|-----------------|-----------------|------2----------|
A|-----------------|-5-----5-------55|-5--7-h9--7------|-----------------|
E|-7-----7-------77|-----------------|--------------000|-0--0----0--03-5-|


*************************

| / Slide up
| \ Slide down
| . Staccato
| P Pop

*************************

Other versions of Don't Start Now

Don't start now (Ver. 2)Bass tabs

Almost there ...

Sign in to get your own page with links to favourite songs and more. You are just one click away...

Login with Facebook Login with Google