Log in

One click and you are in

Login with Facebook Login with Google

Why sign up and log in

Guitar Tabs Explorer
Dua Lipa bass tabs for Break my heart (Ver. 2)

Bass tabs

Tuning: Standard (E A D G)


Verse 1: 0:09 - 0:43
G|----------------------------------------------------------------------------|
D|----------------------------------------------------------------------------|
A|-7--7--7---6-10-12-10-9-9-9-7---5-7-5---------------------10-10-10-7--5-7-5-|
E|----------------------------------------8--8--8---8-7-7-7-------------------| x4
 Pre-Chorus: 0:43 - 1:00
G|------------------------------------------------|
D|------------------------------------------------|
A|------------------------------------------------|
E|---8---7---14---12-10---8---7---14--------------| x1


 Chorus & Verse 2: 1:00 - 1:55
G|----------------------------------------------------------------------------|
D|----------------------------------------------------------------------------|
A|-7--7--7---6-10-12-10-9-9-9-7---5-7-5---------------------10-10-10-7--5-7-5-|
E|----------------------------------------8--8--8---8-7-7-7-------------------| x6


 Pre-Chorus: 1:55 - 2:12
G|------------------------------------------------|
D|------------------------------------------------|
A|------------------------------------------------|
E|---8---7---14---12-10---8---7---14--------------| x1


 Chorus: 2:12 - 2:46
G|----------------------------------------------------------------------------|
D|----------------------------------------------------------------------------|
A|-7--7--7---6-10-12-10-9-9-9-7---5-7-5---------------------10-10-10-7--5-7-5-|
E|----------------------------------------8--8--8---8-7-7-7-------------------| x4


 Bridge: 2:46 - 3:05
G|------------------------------------------------|
D|------------------------------------------------|
A|------------------------------------------------|
E|---8---10---14---12-----8---10---14-------------| x1


 Chorus: 3:05 - 3:41
G|----------------------------------------------------------------------------|
D|----------------------------------------------------------------------------|
A|-7--7--7---6-10-12-10-9-9-9-7---5-7-5---------------------10-10-10-7--5-7-5-|
E|----------------------------------------8--8--8---8-7-7-7-------------------| x3

 Outro:
G|-------------------------------------------------------------------------|
D|-------------------------------------------------------------------------|
A|-7--7--7---6-10-12-10-9-9-9-7---5-7-5------------------------------------|
E|-------------------------------------------------------------------------|

Other versions of Break My Heart

Break my heartBass tabs
Break my heart (Ver. 3)Bass tabs
Break my heart (Ver. 4)Bass tabs

Almost there ...

Sign in to get your own page with links to favourite songs and more. You are just one click away...

Login with Facebook Login with Google